PrimaNota.ru - самый крупный в мире бесплатный архив песенных текстов, аккордов, табулатур и нот


Slayer - Here Comes The Pain - текст песни, таба, бас-таба, драм-таба, видео

Регистрация Запомнить меня
Войти через:  Facebook Google Twitter Vk Yandex Mail.ru

Slayer - Here Comes The Pain - текст песни, таба, бас-таба, драм-таба, видео

Печатать
Просмотров: 257
Авторы музыки: Kerry King
Авторы текста: Kerry King
Slayer - Here Comes The Pain
>From The Album - God Hates Us All




Transcribed by: Sykdom
Email: Psykdom@hotmail.com




..  - palm mute          /  - slide up to
 \  - slide down to      ~  - vibrato
 h  - hammer on          b  - bend
 p  - pull off           Suffixes for bend
 =  - sustain            ph - pinch harmonic
                         f - full bend    h - half bend
*  - see comment         r - release      t - tap bend
X  - percussion mute     ~ - vibrato bend
@  - slight palm mute    () - ghost note

Tune 7-string Guitar down .5 steps (Bb Eb Ab Db Gb Bb Bb)
(Use at least a .54 or .56 as the Low Bb)

Notes from Author: I noticed no Slayer websites have this tab down. Its
different, but damn is it heavy! I believe Kerry uses a custom 7 string BC Rich
built for him, simiular to the 'War Tribe' model. Anyways here you go...


"Here Comes The Pain"


Intro

Eb--------------------------------------------------------------------|
Bb--------------------------------------------------------------------|
Gb--------------------------------------------------------------------|
Db-----------------------------------repeat-several-times-------------|
Ab--------------------------------------------------------------------|
Eb-3-3-3---2===-------3-3-3---2===------------------------------------|
Bb-1-1-1---0===-------1-1-1---0===------------------------------------|


Eb-----------------------------------------|--------------------------|
Bb-----------------------------------------|--------------------------|
Gb-------play 4 times----------------------|--then.. (3-4 times)------|
Db-----------------------------------------|--------------------------|
Ab-----------------------------------------|--------------------------|
Eb-222-6--222-5--22-3----222-6--222-5-3-3--|----------3-3-3--2===-----|
Bb-000-4--000-3--00-1----000-4--000-3-1-1--|----------1-1-1--0===-----|
   ...    ...    ..      ...    ...


Eb--------------------------------------------------------------------|
Bb----(use alternate picking on palmmutes)----------------------------|
Gb--------------------------------------------------------------------|
Db--------------------------------------------------------------------|
Ab--------------------------6-3---------------------------------------|
Eb--------------------------6-3---------------------------------------|
Bb-00-000-000-000-000-000-0-4-1---------------------------------------|
   .. ... ... ... ... ... .

Eb------------------------------|-------------------------------------|
Bb------------------------------|-------------------------------------|
Gb-------------4 times----------|then..-------------------------------|
Db------------------------------|-------------------------------------|
Ab--------------------------3-6-|-------------------------------------|
Eb--------------------------3-6-|--5-5-55-5-6--5-5-55-5-6-5--6-5-6-3-2|
Bb-00-000-000-000-000-000-0-1-4-|--3-3-33-3-4--3-3-33-3-4-3--4-3-4-1-0|
   .. ... ... ... ... ... .


Eb--------------------------------------------------------------------|
Bb-------------------twice--------------------------------------------|
Gb--------------------------------------------------------------------|
Db--------------------------------------------------------------------|
Ab--------------------------------------------------------------------|
Eb--3-2--3-2--6-2-5-3-2--3-2--6-2-5-3-2-------------------------------|
Bb--1-0--1-0--4-0-3-1-0--1-0--4-0-3-1-0-------------------------------|


Eb--------------------------------------------------------------------|
Bb----(use alternate picking on palmmutes)----------------------------|
Gb--------------------------------------------------------------------|
Db--------------------------------------------------------------------|
Ab--------------------------6-3---------------------------------------|
Eb--------------------------6-3---------------------------------------|
Bb-00-000-000-000-000-000-0-4-1---------------------------------------|
   .. ... ... ... ... ... .

Eb------------------------------|-------------------------------------|
Bb------------------------------|-------------------------------------|
Gb-------------4 times----------|then..-------------------------------|
Db------------------------------|-------------------------------------|
Ab--------------------------3-6-|-------------------------------------|
Eb--------------------------3-6-|--5-5-55-5-6--5-5-55-5-6-5--6-5-6-3-2|
Bb-00-000-000-000-000-000-0-1-4-|--3-3-33-3-4--3-3-33-3-4-3--4-3-4-1-0|


Eb--------------------------------------------------------------------|
Bb--------------------------------------------------------------------|
Gb-----lead in to solo------------------------------------------------|
Db--------------------------------------------------------------------|
Ab--------------------------------------------------------------------|
Eb-3-3-3---2===-------3-3-3---2===------------------------------------|
Bb-1-1-1---0===-------1-1-1---0===------------------------------------|


Eb-----------------------------------------|--------------------------|
Bb-----------------------------------------|--------------------------|
Gb-------Jeff's Rhythm under Kerry's Solo--|--then..------------------|
Db-----------------------------------------|--------------------------|
Ab-----------------------------------------|--------------------------|
Eb-222-6--222-5--22-3----222-6--222-5-3-3--|----------2==========-----|
Bb-000-4--000-3--00-1----000-4--000-3-1-1--|----------0==========-----|
   ...    ...    ..      ...    ...


Eb-------------------------------|------------------------------------|
Bb-------------------------------|------------------------------------|
Gb-----several times-------------|------------------------------------|
Db-------------------------------|------------------------------------|Kerry
Ab-------8-7----------8-7--------|-------8-7~-----------8-7-----------|
Eb-7--7-------7-7-6-7-----6------|-7--77-------7--7-6-7-----6~--------|
Bb-0--0-------0-0----------------|------------------------------------|


Eb-------------------------------|------------------------------------|
Bb-------------------------------|------------------------------------|
Gb-----several times-------------|------------------------------------|
Db-------------------------------|------------------------------------|Jeff
Ab-------------------------------|-------8-7~----------8-7------------|
Eb-2=========2=============------|-7--77------7--7-6-7-----6~---------|
Bb-0=========0=============------|------------------------------------|


Eb--------------------------------------------------------------------|
Bb--------------------------------------------------------------------|
Gb--------------------------------------------------------------------|
Db--------------------------------------------------------------------|Both
Ab---------------------------3-2--------------------------------------|
Eb-2------8-7----2-------8-2-3-2--------------------------------------|
Bb-0--00--6-5----0-0-1-0-6-0-1-0--------------------------------------|
      ..           . . .


Eb--------------------------------------------------|-----------------|
Bb--------------------------------------------------|-----------------|
Gb-------Jeff's Rhythm under Kerry's Solo-(solo#2)--|-----------------|
Db--------------------------------------------------|-----------------|
Ab--------------------------------------------------|-----------------|
Eb-222-6--222-5--22-3----222-6--222-5-3-3-----------|-3-3-3--2===-----|
Bb-000-4--000-3--00-1----000-4--000-3-1-1-----------|-1-1-1--0===-----|
Добавлено: 20.03.2012
Другие материалы по этой песне:

Страница создана 20.03.2012
http://primanota.ru/slayer/here-comes-the-pain-chords.htm
Привет, Гость.
Предлагаем пройти революционный курс по гитаре.
Подарок от PrimaNota.Ru, забирай!