PrimaNota.ru - самый крупный в мире бесплатный архив песенных текстов, аккордов, табулатур и нот


Slayer - Haunting The Chapel - текст песни, таба, видео

Регистрация Запомнить меня
Войти через:  Facebook Google Twitter Vk Yandex Mail.ru

Slayer - Haunting The Chapel - текст песни, таба, видео

Печатать
Просмотров: 153
Авторы: Kerry King, Jeff Hanneman

         Slayer - Haunting the Chapel                               



    
D#||--------------------|--------------------------|
A#||--------------------|--------------------------|
F#||--------------------|--------------------------|
C#||--------------------|--------------------------|
G#||--------------------|--------------------------|
D#||--------------------|--------------------------|




  Solo 1
  E  E  E  E       S S S S S S S S S S S S E  E   
--------------||---------------------------------|
--------------||---------------------------------|
--------------||*--------------------------------|
--3--2--------||*--------------------------------|
--1--0--5--4--||---------------------------4--3--|
--------3--2--||---2-2-2-2-2-2-2-2-2-2-2-2-------|


  S S S S S S S S S S S S S S S S    S S S S S S S S S S S S E  E   
----------------------------------|--------------------------------|
----------------------------------|--------------------------------|
----------------------------------|--------------------------------|
--------------------------3---2---|--------------------------------|
----------------------------4---3-|--------------------------4--3--|
--2-2-2-2-2-2-2-2-2-2-2-2---------|--2-2-2-2-2-2-2-2-2-2-2-2-------|


  S S S S S S S S S S S S S S S S  3x  E   E  E  E  E  E  E  E   
-----------------------------------||---------------------------|
-----------------------------------||---------------------------|
------------------------------2---*||---------------------------|
--------------------------3---2---*||---------------------------|
----------------------------4---3--||--9------8-----7-----6-----|
--2-2-2-2-2-2-2-2-2-2-2-2----------||-----10-----9-----8-----7--|


    
    S       S S S S S S S S S S S S S S S    E  E  E  E  E  E  E  E     
|-----------------------------------------|---------------------------||
|-----------------------------------------|---------------------------||
|*----------------------------------------|--------------------------*||
|*----------------------------------------|--------------------------*||
|-----------------------------------------|-----------6-----6--7--6---||
|---6-------6-6-6-6-6-6-6-6-6-6-6-6-6-6-6-|--7--6--7-----7------------||


  E  E  E  E  E  E  E  E       S S S S S S S S S S S S E  E   
--------------------------||---------------------------------|
--------------------------||---------------------------------|
--------------------------||*--------------------------------|
--8--7--6-----9--8--7-----||*--------------------------------|
-----------7-----------8--||---------------------------4--3--|
--------------------------||---2-2-2-2-2-2-2-2-2-2-2-2-------|


  S S S S S S S S S S S S S S S S    S S S S S S S S S S S S E  E   
----------------------------------|--------------------------------|
----------------------------------|--------------------------------|
----------------------------------|--------------------------------|
--------------------------3---2---|--------------------------------|
----------------------------4---3-|--------------------------4--3--|
--2-2-2-2-2-2-2-2-2-2-2-2---------|--2-2-2-2-2-2-2-2-2-2-2-2-------|


  S S S S S S S S S S S S S S S S     
-----------------------------------||
-----------------------------------||
------------------------------2---*||
--------------------------3---2---*||
----------------------------4---3--||
--2-2-2-2-2-2-2-2-2-2-2-2----------||



   Solo 2                                                               
   S      S S S S S S S S S S S E  E     S S S S S S S S S S S S E  E   
--------------------------------------|--------------------------------|
--------------------------------------|--------------------------------|
*-------------------------------------|--------------------------------|
*-------------------------------------|--------------------------------|
--------------------------------2--1--|--------------------------4--3--|
---0------0-0-0-0-0-0-0-0-0-0-0-------|--0-0-0-0-0-0-0-0-0-0-0-0-------|


                                                   |----3----|       
  S S S S S S S S S S S S E  E     S S S S S S S S Q    Q    Q     6x
--------------------------------|----------------------------------||
--------------------------------|----------------------------------||
--------------------------------|---------------------------------*||
--------------------------------|---------------------------------*||
--------------------------6--5--|------------------3----5----6-----||
--0-0-0-0-0-0-0-0-0-0-0-0-------|--0-0-0-0-0-0-0-0-1----3----4-----||


  E  E  E  E  E  E  E  E     E  E  E  E  E  E  E  E     E  E  E  E   
--------------------------|--------------------------|--------------|
--------------------------|--------------------------|--------------|
--------------------------|--------------------------|--------------|
--------------------------|--------------------------|--------------|
-----8--7-----8--7-----7--|--6-----6--7--6-----6--5--|-----5--6--5--|
--9--------9--------8-----|-----8-----------7--------|--7-----------|


  E  E  E  E  E  E  E  E     E  E  E  E  E  E  E  E   
--------------------------|--------------------------|
--------------------------|--------------------------|
--------------------------|--------------------------|
--------------------------|--------------------------|
-----5--4-----5--4-----4--|--3-----3--4--3-----3--2--|
--6--------6--------5-----|-----5-----------4--------|


  E  E  E  E  E  E  E  E     E  E  E  H        E    
--------------------------|-----------------------||
--------------------------|-----------------------||
--------------------------|-----------------------||
--------------------------|--4--3-----------------||
-----2--3--2-----2--1-----|--2--1--5--2--------L--||
--4-----------3-----------|--------3--0--------L--||




Duration Legend
---------------
W - whole
H - half
Q - quarter
E - 8th
S - 16th
T - 32nd
X - 64th
. - note dotted
|-n-|  - n-tuplets


Tablature Legend
----------------
L - tied note
x - dead note
g - grace note
(n) - ghost note
> - accentuded note
NH - natural harmonic
AH - artificial harmonic
TH - tapped harmonic
SH - semi harmonic
PH - pitch harmonic
h - hammer on
p - pull off
b - bend
br - bendRelease
pb - preBend
pbr - preBendRelease
brb - bendReleaseBend
\n/ - tremolo bar dip
\n - tremolo bar dive
-/n - tremolo bar Release up
/n\ - tremolo bar inverted dip
/n - tremolo bar return
-\n - tremolo bar Release down
S - shift slide
s - legato slide
/ -  slide into from below or out of upwards
\ -  slide into from above or out of downwards
~ - vibrato
W - wide vibrato
tr - trill
TP - tremolo picking
T - tapping
S - slap
P - pop
< - fade in
^ - brush up
v - brush down
Добавлено: 03.03.2012
Другие материалы по этой песне:

Страница создана 28.02.2012
http://primanota.ru/slayer/haunting-the-chapel-chords.htm
Привет, Гость.
Предлагаем пройти революционный курс по гитаре.
Подарок от PrimaNota.Ru, забирай!