PrimaNota.ru - самый крупный в мире бесплатный архив песенных текстов, аккордов, табулатур и нот


Slayer - Flesh Storm - текст песни, таба, бас-таба, видео

Регистрация Запомнить меня
Войти через:  Facebook Google Twitter Vk Yandex Mail.ru

Slayer - Flesh Storm - текст песни, таба, бас-таба, видео

Печатать
Просмотров: 205
Уроки эстрадного вокала в Санкт-Петербурге
Авторы музыки: Kerry King
Авторы текста: Kerry King
Gtr I (E A D G B E) - Flesh Storm


  Q=218
 4/4
  Gtr I - 

INTRO RIFF

  H    E E E E   S S S S S S S S S S S S S S S S   E E S S S S E E S S S S
|--------------|---------------------------------|-------------------------|
|--------------|---------------------------------|-------------------------|
|--------------|---------------------------------|-------------------------|
|------6-5-2-3-|-2-------------------------------|-2-3---------3-5---------|
|------6-5-2-3-|-2-------------------------------|-2-3---------3-5---------|
|------4-3-0-1-|-0-0-0-0-0-0-0-0-0-0-0-0-0-0-0-0-|-0-1-0-0-0-0-1-3-0-0-0-0-|


  H    E E E E   S S S S S S S S S S S S S S S S   E E S S S S E E S S S S
|--------------|---------------------------------|--------------------------
|--------------|---------------------------------|--------------------------
|--------------|---------------------------------|--------------------------
|------6-5-2-3-|-2-------------------------------|-2-3---------3-5----------
|------6-5-2-3-|-2-------------------------------|-2-3---------3-5----------
|------4-3-0-1-|-0-0-0-0-0-0-0-0-0-0-0-0-0-0-0-0-|-0-1-0-0-0-0-1-3-0-0-0-0--


  H    E E E E   S S S S S S S S S S S S S S S S   E E S S S S E E S S S S
|--------------|---------------------------------|--------------------------
|--------------|---------------------------------|--------------------------
|--------------|---------------------------------|--------------------------
|------6-5-2-3-|-2-------------------------------|-2-3---------3-5----------
|------6-5-2-3-|-2-------------------------------|-2-3---------3-5----------
|------4-3-0-1-|-0-0-0-0-0-0-0-0-0-0-0-0-0-0-0-0-|-0-1-0-0-0-0-1-3-0-0-0-0--


  H    E E E E   S S S S S S S S S S S S S S S S   E E S S S S E E S S S S
|--------------|---------------------------------|--------------------------
|--------------|---------------------------------|--------------------------
|--------------|---------------------------------|--------------------------
|------6-5-2-3-|-2-------------------------------|-2-3---------3-5----------
|------6-5-2-3-|-2-------------------------------|-2-3---------3-5----------
|------4-3-0-1-|-0-0-0-0-0-0-0-0-0-0-0-0-0-0-0-0-|-0-1-0-0-0-0-1-3-0-0-0-0--


  E E E E E S S S S S S   S S S S S S S S E E S S S S   E E S S E E E +E  E
|-----------------------|-----------------------------|---------------------
|-----------------------|-----------------------------|---------------------
|-----------------------|-----------------------------|---------------------
|-6-5-2-3-2-------------|-----------------2-3---------|-3-5-----3-5-6-(6)---
|-6-5-2-3-2-------------|-----------------2-3---------|-3-5-----3-5-6-(6)---
|-4-3-0-1-0-0-0-0-0-0-0-|-0-0-0-0-0-0-0-0-0-1-0-0-0-0-|-1-3-0-0-1-3-4-(4)---

VERSE 1 RIFF


  S S S S S S S S S S S S S S S S   S S S S S S S S S S S S S S S S
|---------------------------------|---------------------------------|
|---------------------------------|---------------------------------|
|---------------------------------|---------------------------------|
|---------------------------------|---------------------------------|
|---------------------------------|---------------------------------|
|-1-1-1-1-1-1-0-0-1-1-1-1-1-1-0-0-|-1-1-1-1-0-0-0-0-2-2-2-2-2-2-2-2-|


  S S S S S S S S S S S S S S S S   S S S S S S S S S S S S S S S S
|---------------------------------|---------------------------------|
|---------------------------------|---------------------------------|
|---------------------------------|---------------------------------|
|---------------------------------|---------------------------------|
|---------------------------------|---------------------------------|
|-1-1-1-1-1-1-0-0-1-1-1-1-1-1-0-0-|-1-1-1-1-0-0-0-0-3-3-3-3-3-3-3-3-|


  S S S S S S S S S S S S S S S S   S S S S S S S S S S S S S S S S
|---------------------------------|---------------------------------|
|---------------------------------|---------------------------------|
|---------------------------------|---------------------------------|
|---------------------------------|---------------------------------|
|---------------------------------|---------------------------------|
|-1-1-1-1-1-1-0-0-1-1-1-1-1-1-0-0-|-1-1-1-1-0-0-0-0-2-2-2-2-2-2-2-2-|


  S S S S S S S S S S S S S S S S   Q  Q  Q  Q
|---------------------------------|-------------|
|---------------------------------|-------------|
|---------------------------------|-------5--4--|
|---------------------------------|-3--6--5--4--|
|---------------------------------|-3--6--3--2--|
|-1-1-1-1-1-1-0-0-1-1-1-1-1-1-0-0-|-1--4--------|

BRIDGE RIFF


  S S S S S S S S S S S S S S S S   S S S S S S S S S S S S S S S S
|---------------------------------|---------------------------------|
|---------------------------------|---------------------------------|
|---------------------------------|---------------------------------|
|---------------------------------|---------------------------------|
|---------------------------------|---------------------------------|
|-3-3-3-3-3-3-6-4-3-3-3-3-3-3-6-4-|-3-3-3-3-3-3-6-3-4-4-4-4-4-4-4-4-|


  S S S S S S S S S S S S S S S S   Q  Q  Q  Q
|---------------------------------|-------------|
|---------------------------------|-------------|
|---------------------------------|-------5--4--|
|---------------------------------|-5--6--5--4--|
|---------------------------------|-5--6--3--2--|
|-3-3-3-3-3-3-6-4-3-3-3-3-3-3-6-4-|-3--4--------|


  S S S S S S S S S S S S S S S S   S S S S S S S S S S S S S S S S
|---------------------------------|---------------------------------|
|---------------------------------|---------------------------------|
|---------------------------------|---------------------------------|
|---------------------------------|---------------------------------|
|---------------------------------|---------------------------------|
|-3-3-3-3-3-3-6-4-3-3-3-3-3-3-6-4-|-3-3-3-3-3-3-6-3-4-4-4-4-4-4-4-4-|


  S S S S S S S S S S S S S S S S   Q  Q  Q  Q
|---------------------------------|-------------|
|---------------------------------|-------------|
|---------------------------------|-------------|
|---------------------------------|-5--6--5--6--|
|---------------------------------|-5--6--5--6--|
|-3-3-3-3-3-3-6-4-3-3-3-3-3-3-6-4-|-3--4--3--4--|

VERSE 2 RIFF (Has slight differences from Verse 1 Riff)


  S S S S S S S S S S S S S S S S   S S S S S S S S S S S S S S S S
|---------------------------------|---------------------------------|
|---------------------------------|---------------------------------|
|---------------------------------|---------------------------------|
|---------------------------------|---------------------------------|
|---------------------------------|---------------------------------|
|-1-1-1-1-1-1-0-0-1-1-1-1-1-1-0-0-|-1-1-1-1-0-0-0-0-2-2-2-2-2-2-2-2-|


  S S S S S S S S S S S S S S S S   Q  Q  Q  Q
|---------------------------------|-------------|
|---------------------------------|-------------|
|---------------------------------|-------------|
|---------------------------------|-3--6--5--2--|
|---------------------------------|-3--6--5--2--|
|-1-1-1-1-1-1-0-0-1-1-1-1-1-1-0-0-|-1--4--3--0--|


  S S S S S S S S S S S S S S S S   S S S S S S S S S S S S S S S S
|---------------------------------|---------------------------------|
|---------------------------------|---------------------------------|
|---------------------------------|---------------------------------|
|---------------------------------|---------------------------------|
|---------------------------------|---------------------------------|
|-1-1-1-1-1-1-0-0-1-1-1-1-1-1-0-0-|-1-1-1-1-0-0-0-0-2-2-2-2-2-2-2-2-|


  S S S S S S S S S S S S S S S S   S S S S S S S S S S S S S S S S
|---------------------------------|---------------------------------|
|---------------------------------|---------------------------------|
|---------------------------------|---------------------------------|
|---------------------------------|---------------------------------|
|---------------------------------|---------------------------------|
|-1-1-1-1-1-1-0-0-1-1-1-1-1-1-0-0-|-1-1-1-1-0-0-0-0-3-3-3-3-3-3-3-3-|


  S S S S S S S S S S S S S S S S   S S S S S S S S S S S S S S S S
|---------------------------------|---------------------------------|
|---------------------------------|---------------------------------|
|---------------------------------|---------------------------------|
|---------------------------------|---------------------------------|
|---------------------------------|---------------------------------|
|-1-1-1-1-1-1-0-0-1-1-1-1-1-1-0-0-|-1-1-1-1-0-0-0-0-2-2-2-2-2-2-2-2-|


  S S S S S S S S S S S S S S S S   Q  Q  Q  Q    E E E E Q  E E
  S S S S S S S S S S S S S S S S   Q  Q  Q  Q   CHORUS RIFF 
|---------------------------------|-------------|-----------------|
|---------------------------------|-------------|-----------------|
|---------------------------------|-------------|-----------------|
|---------------------------------|-3--6--5--3--|---------2-------|
|---------------------------------|-3--6--5--3--|---------2-------|
|-1-1-1-1-1-1-0-0-1-1-1-1-1-1-0-0-|-1--4--3--1--|-0-0-0-0-0--0-0--|


  E E Q E E E  E    E E E E Q  E E   E E Q E E E E    E E E E Q  E E
|-----------------|----------------|----------------|----------------|
|-----------------|----------------|----------------|----------------|
|-----------------|----------------|----------------|----------------|
|-----2-----------|---------2------|-----2-----6----|---------2------|
|-----2-7-8-7-10--|---------2------|-----2-7-8---8--|---------2------|
|-0-0-0-----------|-0-0-0-0-0--0-0-|-0-0-0----------|-0-0-0-0-0--0-0-|


  E E Q E E E  E    E E E E Q  E E   E E Q  Q Q      E E E E Q  E E
|-----------------|----------------|---------------|----------------|
|-----------------|----------------|---------------|----------------|
|-----------------|----------------|-------10-9----|----------------|
|-----2-----------|---------2------|-----2-10-9----|---------2------|
|-----2-7-8-7-10--|---------2------|-----2--8-7----|---------2------|
|-0-0-0-----------|-0-0-0-0-0--0-0-|-0-0-0---------|-0-0-0-0-0--0-0-|


  E E Q  E E E  E   E E E E Q  E E   E E Q E E E E    E E E E Q  E E
|-----------------|----------------|----------------|----------------|
|-----------------|----------------|----------------|----------------|
|-----------------|----------------|----------------|----------------|
|-----2-----------|---------2------|-----2-----6----|---------2------|
|-----2--7-8-7-10-|---------2------|-----2-7-8---8--|---------2------|
|-0-0-0-----------|-0-0-0-0-0--0-0-|-0-0-0----------|-0-0-0-0-0--0-0-|


  E E Q E E E  E    E E E E Q  E E   E E Q  Q Q      E E E E E E E E
  E E Q E E E  E    E E E E Q  E E   E E Q  Q Q      POST CHORUS RIFF
|-----------------|----------------|---------------|-----------------|
|-----------------|----------------|---------------|-----------------|
|-----------------|----------------|-------10-9----|-----------------|
|-----2-----------|---------2------|-----2-10-9----|-5-2-----6-5-----|
|-----2-7-8-7-10--|---------2------|-----2--8-7----|-5-2-----6-5-----|
|-0-0-0-----------|-0-0-0-0-0--0-0-|-0-0-0---------|-3-0-0-0-4-3-0-0-|


  E E E E E E E E   E E E E E E E E   E E E E E E E E   E E E E E E E E
  E E E E E E E E   E E E E E E E E   E E E E E E E E    LAST RIFF
|-----------------|-----------------|-----------------|-----------------|
|-----------------|-----------------|-----------------|-----------------|
|-----------------|-----------------|-----------------|-----------------|
|-5-2-------------|-5-2-----6-5-----|-5-2-------------|-----------------|
|-5-2-------------|-5-2-----6-5-----|-5-2-------------|-----------------|
|-3-0-0-0-0-0-0-0-|-3-0-0-0-4-3-0-0-|-3-0-0-0-0-0-0-0-|-0-0-0-0-0-0-0-0-|


  E E E E E E E E   E E E E E E E E   E E E E E E E E   E E E E E E E E
|-----------------|-----------------|-----------------|-----------------|
|-----------------|-----------------|-----------------|-----------------|
|-----------------|-----------------|---------5-------|-----------------|
|---------6-------|-----------------|-6-7-------------|-----------------|
|-7-8-5-8---8-7-8-|-----------------|-----8-7---8-7-8-|-----------------|
|-----------------|-0-0-0-0-0-0-0-0-|-----------------|-0-0-0-0-0-0-0-0-|


  E E E E E E E E   E E E E  Q  Q    E E E E E E E E   E E E E E E E E
|-----------------|----------------|-----------------|-----------------|
|-----------------|----------------|-----------------|-----------------|
|-----------------|---------10--9--|---------5-------|-----------------|
|---------6-------|---------10--9--|-6-7-------------|-----------------|
|-7-8-5-8---8-7-8-|----------8--7--|-----8-7---8-7-8-|-----------------|
|-----------------|-0-0-0-0--------|-----------------|-0-0-0-0-0-0-0-0-|


  E E E E E E E E   E E E E E E E E   E E E E E E E E   E E E E E E E E
|-----------------|-----------------|-----------------|-----------------|
|-----------------|-----------------|-----------------|-----------------|
|-----------------|-----------------|---------5-------|-----------------|
|---------6-------|-----------------|-6-7-------------|-----------------|
|-7-8-5-8---8-7-8-|-----------------|-----8-7---8-7-8-|-----------------|
|-----------------|-0-0-0-0-0-0-0-0-|-----------------|-0-0-0-0-0-0-0-0-|


  E E E E E E E E   E E E E  Q  Q    E E E E E E E E
|-----------------|----------------|-----------------*|
|-----------------|----------------|-----------------*|
|-----------------|---------10--9--|---------5-------*|
|---------6-------|---------10--9--|-6-7-------------*|
|-7-8-5-8---8-7-8-|----------8--7--|-----8-7---8-7-8-*|
|-----------------|-0-0-0-0--------|-----------------*|

Добавлено: 21.02.2012
Другие материалы по этой песне:

Страница создана 21.02.2012
http://primanota.ru/slayer/flesh-storm-chords.htm
Привет, Гость.
Предлагаем пройти революционный курс по гитаре.
Подарок от PrimaNota.Ru, забирай!