PrimaNota.ru - самый крупный в мире бесплатный архив песенных текстов, аккордов, табулатур и нот


Slayer - Anti-christ - аккорды и текст, таба, видео

Регистрация Запомнить меня
Войти через:  Facebook Google Twitter Vk Yandex Mail.ru

Slayer - Anti-christ - аккорды и текст, таба, видео

Печатать
Просмотров: 134
Anti-christ
Slayer
		   This is the author's own work.
 Slayer
 Anti-Christ
 A great little tune off the Show No Mercy album.
 e ---------------
 b ---------------
 g ----4--2------4--2--------4--   repeat 2x
 d -4-------4-3-------4--3---4-4
 A -4------------------------2-4-
 E -2--------------------------2-


 verse:
 e
 b
 g---9-\-10---9\10-----------------7                         G 12
 d---9-\-10---9\10---9\10--9-\10---7   repeat2x second time  D 12-----
 A --7-\-8----7\8----9\10--9-\10---5------ play instead of   A 10-----
 E ------------------7\8---7-\10--         D chord           E -----


 Chorus:

 I am the Anti-Christ
 D C A#

 That's what I appear to be
 D A# F(xx355)

 Back to Intro

 Riff before solo
 e
 b
 G 9--9--x--9--9----7--7---3--10--7
 D 9--9--x--9--9----7--7---3--10--7  repeat under solo as well
 A 7--7--x--7--7----5--5---1--8---5
 E

 That should be it.  This is my first time doing this, I hope it gets on.  I
 am known as the Big Dawg.     
Добавлено: 07.12.2013
Другие материалы по этой песне:
  • Аккорды и текст

Страница создана 21.10.2013
http://primanota.ru/slayer/anti-christ-chords.htm
Привет, Гость.
Предлагаем пройти революционный курс по гитаре.
Подарок от PrimaNota.Ru, забирай!