PrimaNota.ru - самый крупный в мире бесплатный архив песенных текстов, аккордов, табулатур и нот


Slaughter - Up All Night - текст песни, таба, видео

Регистрация Запомнить меня
Войти через:  Facebook Google Twitter Vk Yandex Mail.ru

Slaughter - Up All Night - текст песни, таба, видео

Печатать
Просмотров: 116
Авторы музыки: Mark Slaughter, Dana Strum



-------------------------------------------------------------------------------
			     Up all night- Slaughter
-------------------------------------------------------------------------------
Tabbed by: tanner O.
Email:bball00x@yahoo.com

Tuning: tune down one whole step

e|---------------------------------------------------------------------------|
B|---------------------------------------------------------------------------|
G|---7---------7--------7-------7------7-------7-----7------9h7----7----------|
D|---7---------7--------7-------7------6-------6-----6------7------7---------|
A|---------------------------------------------------------------------------|
E|---------0--------0--------0-------0------0------0-----0-------------------|



e|---------------------------------------------------------------------------|
B|---------------------------------------------------------------------------|
G|-------7-------7--------7------7------7-----7/9---9---9---9/7--------------|
D|-------7-------7--------7------6------6------------------------------------|
A|--------------------------------------------5/7---7---7---7/5--------------|
E|--0---------0-------0-------0------0---------------------------------------|



Добавлено: 17.12.2013
Другие материалы по этой песне:

Страница создана 25.05.2012
http://primanota.ru/slaughter/up-all-night-chords.htm
Привет, Гость.
Предлагаем пройти революционный курс по гитаре.
Подарок от PrimaNota.Ru, забирай!