PrimaNota.ru - самый крупный в мире бесплатный архив песенных текстов, аккордов, табулатур и нот


Slash - Vocalise - таба, видео

Регистрация Запомнить меня
Войти через:  Facebook Google Twitter Vk Yandex Mail.ru

Slash - Vocalise - таба, видео

Печатать
Просмотров: 252
-------------------------------------------------------------------------------
			     Vocalise - Slash
-------------------------------------------------------------------------------
Tabbed by: Christopher Giuliano	July 2009
Email: 2giuliano2@yahoo.com

I saw the performance live at the Les Paul Tribute. Simply Amazing! I've been scouring 
net since November 08' and haven't found a single version yet..so i did it myself!  This 
was originally written by Sergei Rachmaninoff, a Russian Pianist in the early 20th century.

Tuning: Half Step
-Gb Major Scale
				                                                 Clean
e|-------------------------------------------------------|
B|-------------------------------------------------------|
G|-------------------------------------------------------|
D|-6 5 6~   3 5 6~   5 3 5~  1 3 5~  3 1 3~       1 3 1--|
A|------------------------------4------4 3~ 1 3~ 4 3~ ---|
E|-------------------------------------------------------|

e|-------------------------------------------------------------------------------|
B|-------------------------------------------------------------------------------|
G|-------------------------------------------------------------------------------|
D|----3 6~ 8  6~-----------------------------------------------------------------|
A|-/4-------------8(9)---7~ 5---7 8~---------------------------------------------|
E|-------------------------------------------------------------------------------|
				                                             Distortion
e|-----------------------------------------------------------------------------|
B|-9 8 9--9 8 9~~--6 8 9~ -8 6 8~~--4 6 8~~~6 4 6~--2 4 6~---4 2 1~~ 1~ 2 1~~--|
G|------------------------------------------------------ 3---------------------|
D|-----------------------------------------------------------------------------|
A|-----------------------------------------------------------------------------|
E|-----------------------------------------------------------------------------|

e|---1-4\6~-8-4~----------------------4----------------------------------------------|
B|-/2-----------6(7)~~5~~-3-5 6~~--4-6---4-6 4\6-4-----------------------------------|
G|------------------------------------------     3p1-3p1-1(2)---2(3)-2(3)-2(3)~------|
D|------------------------------------------------------   3p1-1h3------   ---- -----|
A|-----------------------------------------------------------------------------------|
E|-----------------------------------------------------------------------------------|

e|---6-8-9 8-11 8~ 8-9-11-9-8---8-------------------------------------------------|
B|-6-------------------------11  11 9-11-9h11p9p8-11(13)-11 9-11-9h11p9p8-9-8~----|
G|--------------------------------------------------------------------------------|
D|--------------------------------------------------------------------------------|
A|--------------------------------------------------------------------------------|
E|--------------------------------------------------------------------------------|

e|--8-9h11\13 9 11 13\15 11 13 15 1616 15h16p15p13 15------------------------|
B|-8-------------------------------------------------------------------------|
G|---------------------------------------------------------------------------|
D|---------------------------------------------------------------------------|
A|---------------------------------------------------------------------------|
E|---------------------------------------------------------------------------|

e|-13------------------------------------------------------------------------|
B|-----16-14h16p14p13--------13----------------------------------------------|
G|--------------------15(17)----15(17)-13------------------------------------|
D|----------------------------------------15-13------------------------------|
A|---------------------------------------------------------------------------|
E|---------------------------------------------------------------------------|
			                                          x5 lick
e|----------------------------------------------------------------------------------|
B|------------13-16(18)-{16-14h16p14p13}----     13---------------------------------|
G|-----13-15-----------------------------15----15-13-15-12[12h13]-------------------|
D|--15------------------------------------------------------------15----------------|
A|----------------------------------------------------------------------------------|
E|----------------------------------------------------------------------------------|
				                                                      x10 lick
e|-----------------16 18 18(20)-------{20p18p16}-20 21 (23)-------------------------|
B|--------13h14-16h18---------------------------------------------------------------|
G|--12h13---------------------------------------------------------------------------|
D|----------------------------------------------------------------------------------|
A|----------------------------------------------------------------------------------|
E|----------------------------------------------------------------------------------|

e|-21-20-21-20h21p20p18-18-16-18(20)-18(20)-18(20)--------------------------------|
B|--------------------------------------------------------------------------------|
G|--------------------------------------------------------------------------------|
D|--------------------------------------------------------------------------------|
A|--------------------------------------------------------------------------------|
E|--------------------------------------------------------------------------------|

e|--18-16-18-16-15----15----------------------------------------------------------|
B|-----------------18---16--------------------------------------------------------|
G|------------------------18-17-15-17-18-18(20)-18-17-15---15-20(22)(22)~---------|
D|------------------------------------------------------18------------------------|
A|--------------------------------------------------------------------------------|
E|--------------------------------------------------------------------------------|

e|---------------------------------------------------------------------------|
B|---------------------------------------------------------------------------|
G|--20-18-17-15--------------------------------------------------------------|
D|--------------18-17-15-13--------------------------------------------------|
A|--------------------------16-15-13-----------------------------------------|
E|-----------------------------------16-15-13--------------------------------|
				                                                    Clean
e|-------------------------------------------------------------------------------|
B|-------------------------------------------------------------------------------|
G|3 1 3 1 1-----------------555-666-88-6-5-6-3-3-3-5-5-5-6-6-5-3-5---------------|
D|-------3-3-1~------------------------------------------------------------------|
A|-------------------------------------------------------------------------------|
E|-------------------------------------------------------------------------------|

e|------------------------------------------------------------------------------|
B|------------------------------------------------------------------------------|
G|-111-333-55-3-1-3~~-3-3-3-1-3-------111-333-\5-3p1h3--------------------------|
D|--------------------------- -3-1-3~-------------------------------------------|
A|------------------------------------------------------------------------------|
E|------------------------------------------------------------------------------|

e|---------------------------------------------------------------------------|
B|-----1-----------------------------------------------------------1---------|
G|-1h3---1h3p1----------------------------------------------111-333--3p1h3~--|
D|-------------1-3p13p1-----------------------------111-333------------------|
A|---------------------3p13p1---------------333-444--------------------------|
E|---------------------------3p1-1~~~--333-444-------------------------------|

e|-----------------------------------------------------------------------------------|
B|----------------------------------1------------------------------------------------|
G|3p1-------------------------1h3---  3p1 3~ 3p1 ------------------------------------|
D|-- 3 1 3p1 -1-----------    1h3--------------------3~ 1 3p1------------------------|
A|------     3- 3p1h3-2(3)-1h3h4--------------------------   3~----------------------|
E|-----------------------------------------------------------------------------------|

e|-------------------------------------------------------------------------------|
B|-------------------------------------------------------------------------------|
G|----------55555-33333-11111-00000----------------------------------------------|
D|-------------------------------------------------------------------------------|
A|-2(3)-2(3)---------------------------------------------------------------------|
E|-----------------------------------1~~~----------------------------------------|
				                                                Distortion
e|----------------------------------------------------------------1-4-6-8-4~-----|
B|--9-8-9~-6-8-9~-8-6-8~-4-6\8~-6-4-6~-2-4-6~- 4-2-1~---1~-2-1~~-2---------------|
G|-------------------------------------------------- 3~--------------------------|
D|-------------------------------------------------------------------------------|
A|-------------------------------------------------------------------------------|
E|-------------------------------------------------------------------------------|
			                                alternate picking fast
e|-------------------------------------------------------------------------------|
B|--6(7)-6~-5~-[6-8-9-11-13-\16-13-11-13-11/9-11-9-11-9]-------------------------|
G|--------------------------------------------------- -12-13---------------------|
D|-------------------------------------------------------------------------------|
A|-------------------------------------------------------------------------------|
E|-------------------------------------------------------------------------------|

e|-9-11-12-12(13)(13)(13)-12-12-11-13 13\15-13-15-16(18)---------------------------|
B|---------------------------------------------------------------------------------|
G|---------------------------------------------------------------------------------|
D|---------------------------------------------------------------------------------|
A|---------------------------------------------------------------------------------|
E|---------------------------------------------------------------------------------|
		                     x10 lick
e|--16-15-16-[15h16p15p13]-13-15-16(18)-16(18)-16-15-13--13-18(20) r18  16---|
B|--------------------------------------------------16-----------------------|
G|---------------------------------------------------------------------------|
D|---------------------------------------------------------------------------|
A|---------------------------------------------------------------------------|
E|---------------------------------------------------------------------------|
           x6
e|-18(20)~~-18 16 18-16h18p16p15--------------------------------------------------|
B|----------------------------------------18p16h18- 18(20)x2----------------------|
G|--------------------------------------------------------------------------------|
D|--------------------------------------------------------------------------------|
A|--------------------------------------------------------------------------------|
E|--------------------------------------------------------------------------------|

e|------------------------------------------------------------------------------|
B|-14h16-16(18)r16~~-16---------------------------------------------------------|
G|----------------------17-15h17p15p13 15p13\12-13-12\10------------------------|
D|------------------------------------------------------------------------------|
A|------------------------------------------------------------------------------|
E|------------------------------------------------------------------------------|
						                                         x10 lick
e|------------------------------------- {15h16p15p13} 13~~-----------------------|
B|--11(13)-11-9h11p9p8-----------------------------------9\11/9~~\---------------|
G|---------------------10 8----8h10-10~~-----------------------------------------|
D|--------------------------10---------------------------------------------------|
A|-------------------------------------------------------------------------------|
E|-------------------------------------------------------------------------------|

				                                                    END!

| /  slide up
| \  slide down
| h  hammer-on
| p  pull-off
| ~  vibrato
| +  harmonic
| x  Mute note
===============================================================================
Добавлено: 14.03.2012
Другие материалы по этой песне:
  • Аккорды и текст

Страница создана 14.03.2012
http://primanota.ru/slash/vocalise-chords.htm
Привет, Гость.
Предлагаем пройти революционный курс по гитаре.
Подарок от PrimaNota.Ru, забирай!