PrimaNota.ru - самый крупный в мире бесплатный архив песенных текстов, аккордов, табулатур и нот


Slash - On The Spot Jam - таба, видео

Регистрация Запомнить меня
Войти через:  Facebook Google Twitter Vk Yandex Mail.ru

Slash - On The Spot Jam - таба, видео

Печатать
Просмотров: 180
SLASH'S ON THE SPOT JAM!


E|-----------------------------------------------------------------------------|
B|-----------------------------------------------------------------------------|
G|-----------------------------------------------------------------------------|
D|-----------------------------------------------------------------------------|
A|--------5-3--------------------5-3--------------------3----------3-----------|
E|--0-3-5-----5-3-0-3-5----0-3-5-----5-3-0-3-2----0-3-5----5-3-0-3-1-----------|

E|-----------------------------------------------------------------------------|
B|-----------------------------------------------------------------------------|
G|-----------------------------------------------------------------------------|
D|-----------------------------------------------------------------------------|
A|--------5-3--------------------3----------------------5-3--------------------|
E|--0-3-5-----5-3-0-3-5----0-3-5---5-5-3-0-3-5----0-3-5-----5-3-0-3-2----------|

E|------------------------------------------------------------------------------|
B|------------------------------------------------------------------------------|
G|------------------------------------------------------------------------------|
D|------------------------3-----------------------------------------------7—5/7-|
A|----------3-------------3----------5-3----------------------5-3---------7—5/7-|
E|--3-0-3-5----5-3-0-3-1--1----0-3-5-----5-3-0-3-5—(5)--0-3-5-----5-3-0-3-5-----|

E|-----------------------------------------------------------------------------|
B|-----------------------------------------------------------------------------|
G|-----------------------------------------------------------------------------|
D|-----------------------------------------------3-----------------------------|
A|--------5-3---------5—(4)------3---------------3----------5-3---------7/-----|
E|--0-3-5-----5-3-0-3-2-----0-3-5--5-5-3-0-3-3-5------0-3-5-----5-3-0-3--------|

E|----------------------------------3-------------------------------------------|
B|----------------------------------3-------------------------------------------|
G|----------------------------------5-----------0----------------------3--------|
D|--------3-------------------------5-3---------0----------3-----------3--------|
A|--0-3-5---5-5-3-0-3-5-(5)/--0-3-5-----5-3-0-3-2----0-3-5---5-5-3-0-3-5--------|
E|------------------------------------------------------------------------------|

E|-----------------------------------------------------------------------------|
B|-----------------------------------------------------------------------------|
G|-----------------------------------------------------------------0-----------|
D|--------5-3-------------------3----------------------5-3---------0-----------|
A|--0-3-5-----5-3-0-3-5-3---------5-5-3-0-3-5----0-3-5-----5-3-0-3-2-----------|
E|------------------------\3--1------------------------------------------------

E|-----------------------------------------------------------------------------|
B|-----------------------------------------------------------------------------|
G|--------------------3-----------------------------------------------5/7------|
D|--------3-----------3----------5-3----------------------5-3------------------|
A|--0-3-5---5-5-3-0-3-5----0-3-5-----5-3-0-3-3-5----0-3-5-----5-3-0-3----------|
E|-----------------------------------------------------------------------------|

E|-----------------------------------------------------------------------------|
B|----------6------------\3--------7-6---------\6------------------------------|
G|----5/7-7---7-7\5---5--\4--------7---5-7---5-\7------------------------------|
D|--7---------------7----------5/7---------7-----------------------------------|
A|-----------------------------------------------------------------------------|
E|-----------------------------------------------------------------------------|

E|-----------------------------------------------------------------------------|
B|--8-(8)-6-8-6----------------------------------------------------------------|
G|--------------7\5---5-7-5-------5--------------------------------------------|
D|------------------7-------7/5-6----5-3-----0-------------------------3-------|
A|---------------------------------------5/3-3-0-3---------3-----5-3/5---------|
E|-------------------------------------------------4-(4)/5---3-1---------------|

E|-----------------------------------------------------------------------------|
B|------------------------------------------6-6-5-6/5--------------------------|
G|--------------------------------------5-5-----------7---5-7-5----------------|
D|--5-(5)-3-5---3-5-5-6-5-3-5-3-----5/7-----------------7-------7-6-5-6-----5--|
A|------------5-----------------5-3-------------------------------------5-2----|
E|-----------------------------------------------------------------------------|

E|-----------------------------------------------------------------------------|
B|-----------------------------------------------------------------------------|
G|-------------------------3—(3)-----------------------------------------------|
D|--------3----------------3—(3)--5-5/3--5-5-5-(5)-3---------------------------|
A|--0-3-5---5-3-3-0-3-1-\5---------------------------5-5-3---------------------|
E|---------------------------------------------------------5-4-3-1-------------|

E|----------------------------------------------10-----10-(13)----------------------|
B|------------------10-13--------------------10-----13----(13)-10-------------13----|
G|------------10----------12--10-12----10-12----------------------12-10----10-------|
D|------10/12----12-----------------12----------------------------------12----------|
A|--/5------------------------------------------------------------------------------|
E|----------------------------------------------------------------------------------|
continued
E|-----------------------------------------------------------------------------|
B|-----------------------------------------------------------------------------|
G|--10-9-(9)-10-9--------------------------------------------------------------|
D|----------------12----10-----------------------------------------------------|
A|-------------------12--------------------------------------------------------|
E|-----------------------------------------------------------------------------|

E|------------------------------------------------------------------------------|
B|------------------------------------------------------------------------------|
G|------------------------------------------------------------------------10----|
D|--/12/12/12-10--------------------------------10---------------------------12-|
A|---------------12-11-12-12\10-8-10----8-10/12----\10/8----10----8—10/12-------|
E|-----------------------------------10------------------10----10---------------|

Jordy
Добавлено: 10.03.2012
Другие материалы по этой песне:

Страница создана 10.03.2012
http://primanota.ru/slash/on-the-spot-jam-chords.htm
Привет, Гость.
Предлагаем пройти революционный курс по гитаре.
Подарок от PrimaNota.Ru, забирай!