PrimaNota.ru - самый крупный в мире бесплатный архив песенных текстов, аккордов, табулатур и нот


Slash - Carolina - таба, видео

Регистрация Запомнить меня
Войти через:  Facebook Google Twitter Vk Yandex Mail.ru

Slash - Carolina - таба, видео

Печатать
Просмотров: 286
Chooooon. Best voice-box thing Slash has done since the Rocket Queen solo from Live-Era.

Introduction:

eb|---------------------------------------------------------|
Bb|---------------------------------------------------------|
Gb|---------------------------------------------------------|
Db|---------------------------------------------------------|
Ab|-5-5-5-5h7---7p5-7---5~----------------------------------| x4
Eb|-----------0-------x-------------------------------------|

The wah blurs the notes a bit, so listen closely to the track - if you've got headphones
available, stick them in and then take the left ear out. The voicebox is primarily in
the right ear, so that should help you isolate the part if you can't work out where any 
notes go in future.

Verse:

eb|-------|-------------------------------------------------|
Bb|-------|-------------------------------------------------|
Gb|-------|-------------------------------------------------|
Db|-------|--------------------------7---5---7p5h7-5--------|
Ab|-5-5-5-|-5h7---7p5-7---5~-5-5h7-0---0---0----------0-5h7-|
Eb|-------|-----0-------x-----------------------------------|
                E5                 A5

eb|---------------------------------------------------------|
Bb|---------------------------------------------------------|
Gb|-------5-5---5-------------------------------------------|
Db|---5s7---5h7-5-------------------------------------------|
Ab|-3-------------5-5h7----7---5---7---5-5-5h7--------------|
Eb|----------------------0---x---0---x----------------------|
   C5                    E5

I've put the relevant chords from the second verse under the note Slash plays when they
are played, for any dedicated rhythm guitarists who want to try their hand at this. The
x on the E is a muted open string - playing a palm-muted open string sounds too heavy 
for the track at those points in my opinion, but I suppose it depends on the rig you're using.

Chorus:

eb|-------------------------------------------------------------------------------|
Bb|-------------------------------------------------------------------------------|
Gb|-------------------------------------------------------------------------------|
Db|-------------------------------------------------------------------------------|
Ab|-9-8-9-8-7-6-7-6-5-5-7-7~-------7-7-8-9-9-8-8-9-9-8-8-7-7-6-6-7-7-6-6-5-5-7-7--| x2
Eb|-7-6-7-6-5-4-5-4-3-3-5-5~-------5-5-6-7-7-6-6-7-7-6-6-5-5-4-4-5-5-4-4-3-3-5-5--|
                                                   PM ----------------------------|

Use your index and little finger (if you don't already) as it makes it slightly more
comfortable moving between semitone 5th chords.

Bridge:

eb|------------------------------------------0--------------------------------|
Bb|-3-3-3-3-3-3-3-3--------------------------0--------------------------------|
Gb|-2-2-4-2-2-2-4-2-------------------------------1(2)1-----------------------|
Db|-0-0-0-0-0-0-0-0-----------------------------------------------------------|
Ab|------------------------------7-7------------------------------------------|
Eb|------------------2-2-3-3-4-4-5-5-2b3r2-0----0-----------------------------|

The note in brackets is a trill - hammer on and pull off between 1 and 2 as fast as you can.

eb|------------------------------------------------0----0---------------------|
Bb|-3-3-3-3-3-3-3-3---------------4b6r4------------0----0---------------------|
Gb|-2-2-4-2-2-2-4-2--7-9b11r9-7-2-4b6r4---------------------------------------|
Db|-0-0-0-0-0-0-0-0---------------------2-------------------------------------|
Ab|-------------------------------------0-------------------------------------|
Eb|----------------------------------------2b3r2-0----0-----------------------|

The new bends are quite quiet. They're predominantly in the right ear, so headphone up
if you can't hear them.

eb|-----------------------------------------------------------------------------|
Bb|-----------------------------------------------------------------------------|
Gb|------------------11-11s10-10s9-9s7-7----------------------------------------|
Db|-----------------------------------------------------------------------------|
Ab|-4-4-4-4-4-4-4-4--9---9s8---8s7-7s5-5----------------------------------------|
Eb|-2-2-2-2-2-2-2-2-------------------------------------------------------------|
PM------------------------------------------------------------------------------|

Solo Rhythm:

Play the chorus again. :P I'm not gonna tab the solo here, because I'm not good enough
with my ears to do it justice yet. You can improvise in Bm Pentatonic, though you will
get some clashes with the A#5 in the chorus, so don't be afraid to branch out to avoid that.

After the solo rhythm, slide up the neck and down again on the E string, and then play
the intro riff again.

Final Chorus:

Initially the same, but on the 3rd/4th run throughs of the chords (2:39 on the track),
stop using the 5th chord and use a major third instead. So you get this:

eb|-------------------------------------------------------------------------------|
Bb|-------------------------------------------------------------------------------|
Gb|-------------------------------------------------------------------------------|
Db|-------------------------------------------------------------------------------|
Ab|-6-5-6-5-4-3-4-3-2-2-4-4~-------4-4-5-6-6-5-5-6-6-5-5-4-4-3-3-4-4-3-3-2-2-4-4--| x2
Eb|-7-6-7-6-5-4-5-4-3-3-5-5~-------5-5-6-7-7-6-6-7-7-6-6-5-5-4-4-5-5-4-4-3-3-5-5--|
                                                   PM ----------------------------|

It can sound scabby if your gain is too high, so be careful with the tone.

After two cycles with the major 3rd instead of the 5th, Slash brings in this voicebox
riff as the chords return to their power chord shapes:

eb|---------------------------------------------------------------------------|
Bb|---------------------------------------------------------------------------|
Gb|-------6b7r6-4-------------------------------------------------------------|
Db|-----4---------7-6-5-3-----------------------------------------------------|
Ab|---5-------------------5---------------------------------------------------|
Eb|-7-----------------------3-5-5~-5-5-6-7------------------------------------|

It's all quavers apart from the quick 5-6-7 which gets you back to the starting note to
play it again, so if you can't quite make it out on the track keep it to that rhythm and
you should get it.

End with this:

eb|----------------|
Bb|----------------|
Gb|----------------|
Db|----------------|
Ab|-5-5-5-5h7------|
Eb|-----------0~-0-|
               PM-|
Добавлено: 03.10.2013
Другие материалы по этой песне:

Страница создана 01.09.2013
http://primanota.ru/slash/carolina-chords.htm
Привет, Гость.
Предлагаем пройти революционный курс по гитаре.
Подарок от PrimaNota.Ru, забирай!