PrimaNota.ru - самый крупный в мире бесплатный архив песенных текстов, аккордов, табулатур и нот


Slash - Anastasia - текст песни, таба, видео

Регистрация Запомнить меня
Войти через:  Facebook Google Twitter Vk Yandex Mail.ru

Slash - Anastasia - текст песни, таба, видео

Печатать
Просмотров: 4304
Авторы: Myles Kennedy, Slash

Artist: Slash              Tuning: Half Step Down (Eb Ab Db Gb Bb Eb)
Song  : Anastasia          Version 2
Album : Apocalyptic Love

E----13-12-13-10-13-12-13|----13-12-13-10-13-12-13|----13-12-13-10-13-12-13|
B-10---------------------|-10---------------------|-11---------------------|
G------------------------|------------------------|------------------------|
D------------------------|------------------------|------------------------|
A------------------------|------------------------|------------------------|
E------------------------|------------------------|------------------------|

E----13-12-13-10-13-12-13|----15-13-15-12-15-13-15|----15-13-15-12-15-13-15|
B-11---------------------|-12---------------------|-12---------------------|
G------------------------|------------------------|------------------------|
D------------------------|------------------------|------------------------|
A------------------------|------------------------|------------------------|
E------------------------|------------------------|------------------------|

E----15-13-15-12-15-13-15|----15-13-15-12-15-13-15|----17-15-17-12-17-15-17|
B-13---------------------|-13---------------------|-14---------------------|
G------------------------|------------------------|------------------------|
D------------------------|------------------------|------------------------|
A------------------------|------------------------|------------------------|
E------------------------|------------------------|------------------------|

E----17-15-17-12-17-15-17|----17-13-17-12-17-13-17|----17-13-17-12-17-13-17|
B-14---------------------|-15---------------------|-15---------------------|
G------------------------|------------------------|------------------------|
D------------------------|------------------------|------------------------|
A------------------------|------------------------|------------------------|
E------------------------|------------------------|------------------------|

E----18-17-18----17-15-17|----15-14-15----15-14-15|----13-12-13----13-12-13|
B-15----------14---------|-13-----------12--------|-11------------10-------|
G------------------------|------------------------|------------------------|
D------------------------|------------------------|------------------------|
A------------------------|------------------------|------------------------|
E------------------------|------------------------|------------------------|

E----12-11-12----12-11-12|------------------------|------------------------|
B-9----------------------|-10-13-12-13--9-12-10-12|--8-12-10-12----10-9-10-|
G--------------9---------|------------------------|--------------7---------|
D------------------------|------------------------|------------------------|
A------------------------|------------------------|------------------------|
E------------------------|------------------------|------------------------|

E------------------------|------------------------|------------------------|
B--6-10-9-10-----8-7-8---|--7b8r---5-5------------|-15b17------------------|
G--------------5---------|------------------------|------------------------|
D------------------------|------------------------|------------------------|
A------------------------|------------------------|------------------------|
E------------------------|------------------------|------------------------|
Добавлено: 19.10.2013
Другие материалы по этой песне:

Страница создана 11.06.2013
http://primanota.ru/slash/anastasia-chords.htm
Привет, Гость.
Предлагаем пройти революционный курс по гитаре.
Подарок от PrimaNota.Ru, забирай!