PrimaNota.ru - самый крупный в мире бесплатный архив песенных текстов, аккордов, табулатур и нот


Slapshot - Rap Sucks - бас-таба, видео

Регистрация Запомнить меня
Войти через:  Facebook Google Twitter Vk Yandex Mail.ru

Slapshot - Rap Sucks - бас-таба, видео

Печатать
Просмотров: 119
Уроки эстрадного вокала в Санкт-Петербурге
Chorus, Play it almost trough the whole song

G|---------------------------------------------------------------------|
D|---------------------------------------------------------------------|
A|---------------------------------------------------------------------|
E|-3-3-3--3-5-5-6-6-6-5-6-7-7-7-6-6-3-3-3------------------------------|

Refrain:
''YO YO YO....''

G|---------------------------------------------------------------|
D|-------------------------------------------------3-3-3-3-3-3---|
A|-5-5-5-5-5-5-3-3-3-5-5-5-5-5-5-3-3-3-1-1-1-1-1-1---------------|
E|---------------------------------------------------------------|

G|---------------------------------------------------------------|
D|-------------------------------------------------3-3-3-3-3-3---|
A|-5-5-5-5-5-5-3-3-3-5-5-5-5-5-5-3-3-3-1-1-1-1-1-1---------------|
E|---------------------------------------------------------------|

Bridge:

Play the A open, 
G|--------------------------|
D|--------------------------|
A|-0------------------------|
E|--------------------------|

When the drums come in you play this:
G|---------------------------------------------------------------|
D|---------------------------------4-4-4-4-4-4-4-4---------------|
A|-----------------050-050-050-050----------------050-050-050-050|
E|-2-2-2-2-2-2-2-2-----------------------------------------------|

G|---------------------------------------------------------------|
D|---------------------------------4-4-4-4-4-4-4-4---------------|
A|-----------------050-050-050-050-------------------------------|
E|-2-2-2-2-2-2-2-2-----------------------------------------------|

Thanks for enjoying my tab, please contact me if you have notes or improvements.
Cheers

http://www.youtube.com/user/TrojanSkinhead94
Добавлено: 21.11.2013
Другие материалы по этой песне:
  • Аккорды и текст

Страница создана 21.11.2013
http://primanota.ru/slapshot/rap-sucks-chords.htm
Привет, Гость.
Предлагаем пройти революционный курс по гитаре.
Подарок от PrimaNota.Ru, забирай!