PrimaNota.ru - самый крупный в мире бесплатный архив песенных текстов, аккордов, табулатур и нот


Slapshot - I Want You Dead - текст песни, бас-таба, видео

Регистрация Запомнить меня
Войти через:  Facebook Google Twitter Vk Yandex Mail.ru

Slapshot - I Want You Dead - текст песни, бас-таба, видео

Печатать
Просмотров: 80
   Intro

G|----(5x)----|------|-------(5x)--|------|
D|------------|------|-------------|------|
A|------------|-5-5--|-------------|--5-5-|
E|--4-7-------|------|--4-7--------|------|

   Verse

G|----(5x)----|------|-------(5x)--|------|   4x
D|------------|------|-------------|------|
A|------------|-5-5--|-------------|--5-5-|
E|--4-7-------|------|--4-7--------|------|

   Chorus

G|---------------------------------------------------------------(2x)--------|
D|---------------------------------------------------------------------------|
A|--6-6-6-6-6-/9---5-5-5-5-5--------------------5-5-5-5-5--------------------|
E|-----------------------------4-4-4-4-4-4--/7-------------------------------|

   Repeat Verse/Chorus

   
    Break

G|---------------------------------------------------------------------------|
D|---------------------------------------------------------------------------|
A|--------------------------------5-5-5--------------------------------------|
E|--4-4-4-4-4-4-4-4-4-4-4--7-4-7---------------------------------------------|


   Repeat Chorus/Verse


 Enjoy, Please rate
 Cheers
http://www.youtube.com/user/TrojanSkinhead94
Добавлено: 08.08.2013
Другие материалы по этой песне:
  • Аккорды и текст

Страница создана 12.04.2012
http://primanota.ru/slapshot/i-want-you-dead-chords.htm
Привет, Гость.
Предлагаем пройти революционный курс по гитаре.
Подарок от PrimaNota.Ru, забирай!