PrimaNota.ru - самый крупный в мире бесплатный архив песенных текстов, аккордов, табулатур и нот


Slapshock - Purple - таба, видео

Регистрация Запомнить меня
Войти через:  Facebook Google Twitter Vk Yandex Mail.ru

Slapshock - Purple - таба, видео

Печатать
Просмотров: 101
SONG: Purple
BAND: Slapshock
Intro: (wah-wah effect)
gtr.1
D --------------------------------------------|
A --------------------6-----------------------|
F --7---------5-7--7---7--7-------------------|
C ----7--7-8---------------7--7-8-7-7--x-5h7--|
G --------------------------------------------|
D --------------------------------------------|

--------------------------------8-8-8h10--|
-----------------6----6-6-10-10-----------|
--7-------5-7-7---7--7--------------------|2x
---7--7-8---------------------------------|
------------------------------------------|
------------------------------------------|
wah-wah effect
gtr.2
D --55555555-55555555--|
A --66666666-55555555--|
F --55555555-55555555--|2x
C --77777777-77777777--|
G --55555555-55555555--|
D ---------------------|
wah-wah effect
press the wahaha pedal,di me sure kung gan2,pero sounds the same if you play it like 
na bahal sa timing ng effects,malaki na kayo.)
Verse:
D --5---5-xxx-5-xx-5-xx-5---xxx-5-xx-5-xx-5-xx-|
A --5h6-6-xxx-6-xx-6-xx-6p5-xxx-5-xx-5-xx-5-xx-|
F --5---5-xxx-5-xx-5-xx-5---xxx-5-xx-5-xx-5-xx-|2x
C --7---7-xxx-7-xx-7-xx-7---xxx-7-xx-7-xx-7-xx-|
G --5---5-xxx-5-xx-5-xx-5---xxx-5-xx-5-xx-5-xx-|
D ---------------------------------------------|
Refrain:
D --55555555-33333333-55555555---------------------------|
A --66666666-33333333-66666666---------------------------|
F --55555555-33333333-55555555---------------------------|
C --77777777-55555555-77777777---------------------------|
G --55555555-33333333-55555555-5-5--7-7-7--8-8-10--10h12-|
D -------------------------------------------------------|
Verse2:
gtr.1   wah-wah effect
D --------------------------------------------|
A --------------------6-----------------------|
F --7---------5-7--7---7--7-------------------|
C ----7--7-8---------------7--7-8-7-7--x-5h7--|
G --------------------------------------------|
D --------------------------------------------|
wah-wah effect
--------------------------------8-8-8h10--|
-----------------6----6-6-10-10-----------|
--7-------5-7-7---7--7--------------------|
---7--7-8---------------------------------|
------------------------------------------|
------------------------------------------|
wah-wah effect
gtr.2
D --55555555-55555555--|
A --66666666-55555555--|
F --55555555-55555555--|2x
C --77777777-77777777--|
G --55555555-55555555--|
D ---------------------|
wah-wah effect
D --5---5-xxx-5-xx-5-xx-5---xxx-5-xx-5-xx-5-xx---|
A --5h6-6-xxx-6-xx-6-xx-6p5-xxx-5-xx-5-xx-5-xx---|
F --5---5-xxx-5-xx-5-xx-5---xxx-5-xx-5-xx-5-xx-2-|x    wah-wah effect
C --7---7-xxx-7-xx-7-xx-7---xxx-7-xx-7-xx-7-xx---|
G --5---5-xxx-5-xx-5-xx-5---xxx-5-xx-5-xx-5-xx---|
D -----------------------------------------------|
Refrain2:
gtr.1
D --5----3---|
A --6----3---|
F --5----3---| 2x(plucking i2,di ko n nlgay pttern,katamad,bsta gnyan position ng daliri)
C --7----5---|
G --5----3---|
D -----------|
gtr.2
D -------------------------------------------------|
A -------------------------------------------------|
F -------------------------------------------------|2x
C -------------------------------------------------|
G --5~~~~~~~~~~~~~~~~~~~~~~~3~~~~~~~~~~~~~~~~~~~~~~
D -------------------------------------------------
Chorus:
distortion
D ---------------------------------------------------------|
A ----------------6-6--8-8-8-8-----------------------------|
F --7-7--5-5-5-5--5-5--7-7-7-7--7-7--5-5-5-5--2-2--3-3-3-3-|
C --7-7--5-5-5-5--3-3--5-5-5-5--7-7--5-5-5-5--2-2--3-3-3-3-|
G --5-5--3-3-3-3----------------5-5--3-3-3-3--0-0--1-1-1-1-|
D ---------------------------------------------------------|
Interlude: (same as the intro)
repeat everything,just listen to the pattern
Bridge:
D --5--5--5--5---5--5--5--5-|
A --6--6--6--6---6--6--6--6-|
F --7--7--7--7---5--5--5--5-|2x
C --------------------------|
G --------------------------|
D --------------------------|
gtr.1
D --5----5----5----5-----5----5----5----5-|
A --6----6----6----6-----6----6----6----6-|
F --7----7----7----7-----5----5----5----5-|4x
C ----------------------------------------|
G ----------------------------------------|
D ----------------------------------------|
gtr.2
D ------------------------------------------|
A ------------------------------------------|
F -------------------------------10-7-7-----|4x
C ----7---7s8-8-7----10---10s12---------10--|
G --5---5----------8----8-------------------|
D ------------------------------------------|

D ----------------------------------------------------------|
A ----------------------------------------------------------|
F ----------------------------------------------------------|4x
C --0-0-0--0-0-0--0-0-0--0-0-0--3-3-3--3-3-3--3-3-3--3-3-3--|
G --0-0-0--0-0-0--0-0-0--0-0-0--3-3-3--3-3-3--3-3-3--3-3-3--|
D --0-0-0--0-0-0--0-0-0--0-0-0--3-3-3--3-3-3--3-3-3--3-3-3--|
p.m.- -    - -    - -    - -    - -    - -    - -    - -

D --------------------------------|
A --------------------------------|
F --------------------------------|
C --0------0-0------0-0-----0-0---|
G --0--1p0-0-0--1p0-0-0-1p0-0-0-5-|
D --0------0-0------0-0-----0-0---|


D ---------------------------------|
A ---------------------------------|
F ---------------------------------|
C --0-0-----0-0------0-0-----0-0---|
G --0-0-1p0-0-0--1p0-0-0-1p0-0-0---|
D --0-0-----0-0------0-0-----0-0---|

D ---------------------------------|
A ---------------------------------|
F ---------------------------------|4x
C --0-0-----0-0------0-0-----0-0---|
G --0-0-1p0-0-0--1p0-0-0-1p0-0-0-5-|
D --0-0-----0-0------0-0-----0-0---|

gtr.1
D --5----3---|
A --6----3---|
F --5----3---| 2x(plucking i2,di ko n nlgay pttern,katamad,basta gnyan position ng daliri)
C --7----5---|
G --5----3---|
D -----------|

gtr.1
D --5----3---|
A --6----3---|
F --5----3---| 2x(plucking i2,di ko n nlgay pttern,katamad,bsta gnyan position ng daliri)
C --7----5---|
G --5----3---|
D -----------|

Gtr.2
D—-5~~
A--6~~
F—-5~~  end
C—-7~~
G—-5~~
D---~~

legend:
~ ring
x dead string
h hammer
s slide
p pull off

(kina alex at lester i2,ang dalawang kalbong gago ng plm)
Добавлено: 17.05.2012
Другие материалы по этой песне:
  • Аккорды и текст

Страница создана 17.05.2012
http://primanota.ru/slapshock/purple-chords.htm
Привет, Гость.
Предлагаем пройти революционный курс по гитаре.
Подарок от PrimaNota.Ru, забирай!