PrimaNota.ru - самый крупный в мире бесплатный архив песенных текстов, аккордов, табулатур и нот


Slackjaw - Rooms Not Clean - таба, видео

Регистрация Запомнить меня
Войти через:  Facebook Google Twitter Vk Yandex Mail.ru

Slackjaw - Rooms Not Clean - таба, видео

Печатать
Просмотров: 90
Уроки эстрадного вокала в Санкт-Петербурге
WORK IN PROGRESS
"room's not clean" by slackjaw- Tab notated by me but info came from Jacob
Should be able to learn the strumming pattern by yourself!
Enjoy~~~

Intro:
Amaj7 Amaj7(var) Emaj7 C#m
Does this little riff( var=variation):
      Amaj7     Amaj7(var)      Emaj7            C#m
e------16---------14-------------11---------------4------------------------------------------|
B------0----------0--------------0----------------5--------------------------------------|
G------13---------13-------------8----------------6----------------------------------------------------------|
D------14---------14-------------9----------------6-----------------------------------------------|
A------12---------12-------------7----------------4----------------------------------------|
E------X----------X--------------X----------------X-------------------------|

Verse #1:
From "i haven't been sleeping lately" to "but the way you act makes me confused"
Amaj7 C#m Emaj7
Pretty sure he's just picking parts of the chords for Amaj7 and C#m and doing some slide-y stuff on the Emaj7, probably sliding 
e string 9-11 frets or something like that. 
(chords as tabbed above)


The riff part (first time through): (not correct key but pattern is right-- will change later)
e----------------------------------------------------------------|
B----------------------------------------------------------------|
G-----------------13-13--11-11-----------------------11-11--9-9--|
D-----------9-9-------------------------------7-7----------------|
A----11-11-------------------------------9-9---------------------|
E----------------------------------------------------------------|

Intro

Verse #2
From "you forgot to tie yr shoelace" to "i'll stick around just for a while"


Riff Part (second time through)

Chorus
(from "and i like you," to "i don't know what it means")
Same chords as intro

Build to Chorus 

Добавлено: 25.12.2015
Другие материалы по этой песне:
  • Аккорды и текст

Страница создана 25.12.2015
http://primanota.ru/slackjaw/rooms-not-clean-chords.htm
Привет, Гость.
Предлагаем пройти революционный курс по гитаре.
Подарок от PrimaNota.Ru, забирай!