PrimaNota.ru - самый крупный в мире бесплатный архив песенных текстов, аккордов, табулатур и нот


Slackers - Wasted Days - аккорды и текст, таба, бас-таба, видео

Регистрация Запомнить меня
Войти через:  Facebook Google Twitter Vk Yandex Mail.ru

Slackers - Wasted Days - аккорды и текст, таба, бас-таба, видео

Печатать
Просмотров: 108
Авторы: Marcus Geard

Wasted Days
Slackers
ARTIST: The Slackers
SONG: Wasted Days
ALBUM: Wasted Days (2000)
Tabbed By: Johnny Mineo
 
Standard Tuning in 4/4
 
INTRO - played with bass
 
e:----------------------------------------
B:----------------------------------------
G:---------------------------------------- Repeat
D:---------------------------------3--6---
A:--------------3--6----4--4----4---------
E:---4--4----4----------------------------
 
Horns tabbed for guitar
 
e:-----------------------------------------
B:-----------------------------------------
G:---5----6--5--6--8-----10--8---10--12----
D:---6----8--6--8--10----11--10--11--13----
A:-----------------------------------------
E:-----------------------------------------
 
e:------------------------------------------------
B:------------------------------------------------
G:---13--12--10--8----8---5--8---6---6--3--6--5--- Repeat
D:---15--13--11--10---10--6--10--8---8--5--8--6---
A:------------------------------------------------
E:------------------------------------------------
 
CHORDS USED:
 
    Ab      Db      Bbm     Eb7
e:---4---|---4---|---6---|---6---|
B:---4---|---6---|---6---|---8---|
G:---5---|---6---|---6---|---6---|
D:---6---|---6---|---8---|---8---|
A:---6---|---4---|---8---|---6---|
E:---4---|-------|---6---|-------|
 
Upbeats
 
Ab    Db    Ab    Db
/ /   / /   / /   / /
Ab    Db    Ab
/ /   / /   / / / /
 
Bbm       Db    Eb7
/ / / /   / /   / /
 
N.C                                          Ab        Db
What have I done wrong that I should be sorry...
Ab                     Db            Ab        Db
You broke my heart you left...
Ab                     Bbm           Db        Eb7
What I'm sorry for...
 
At the end, with the "ooh's" you play:
Ab    Db    Ab    Eb7
/ /   / /   / /   / /
 
There you have it.  Any questions concernes or need for
lyrics, please email me at JohnnyMineo@hotmail.com

________________________________________________________________________________
     
Добавлено: 15.10.2013
Другие материалы по этой песне:
  • Аккорды и текст

Страница создана 12.07.2012
http://primanota.ru/slackers/wasted-days-chords.htm
Привет, Гость.
Предлагаем пройти революционный курс по гитаре.
Подарок от PrimaNota.Ru, забирай!