PrimaNota.ru - самый крупный в мире бесплатный архив песенных текстов, аккордов, табулатур и нот


Slackers - Sarah - аккорды и текст, бас-таба, видео

Регистрация Запомнить меня
Войти через:  Facebook Google Twitter Vk Yandex Mail.ru

Slackers - Sarah - аккорды и текст, бас-таба, видео

Печатать
Просмотров: 123
Авторы: Vic Ruggiero

Sarah
Slackers
Intro: (piano part)
[e---------------------------------------------------------------------------
B----------3-------------3----------3---------------------------------------
G-------3------5-3-5-3-5---------3-----5-3-5-3-5-3--------------------------
D--3h5----------------------3h5--------------------4------------------------
A---------------------------------------------------------------------------
E---------------------------------------------------------------------------

e---------------------------------------------------------------------------
B----------3--3-----------3-------------------------------------------------
G-------3------5-3-5-3-5-3-------3--5-3-5-6-5-3-----------------------------
D--3h5------------------------5-----------------5-3-5---3--5----------------
A---------------------------------------------------------------------------
E---------------------------------------------------------------------------]

main riff: (horn parts)
[e---------------------------------------------------------------------------
B----------3-----------3-----------3--3-------------------------------------
G--------3----5-3-5-3-5----------3-----5-3-5-3-5-3--------------------------
D--3h4h5--------------------3h4h5------------------4~-----------------------
A---------------------------------------------------------------------------
E---------------------------------------------------------------------------

e---------------------------------------------------------------------------
B----------3--3------------3------------------------------------------------
G--------3------5-3-5-3-5-3-------3--5-3-5-5-6-5-3--------------------------
D--3h4h5------------------------5-------------------5-3-5---3--5~-----------
A---------------------------------------------------------------------------
E---------------------------------------------------------------------------]

verse: ska rythmn } x2
[e--3-3-----------------3-3------------4-4--3-3---------------------------3-3
B--3-3--3-3--5-5--6-6--3-3--3-3--5-5--4-4--3-3--3-3--5-5--6-6------------3-3
G--4-4--3-3--5-5--6-6--4-4--3-3--5-5--5-5--4-4--3-3--5-5--6-6---6----5---4-4
D--5-5--3-3--5-5--6-6--5-5--3-3--5-5--6-6--5-5--3-3--5-5--6-6--6-6--5-5--5-5
A--5-5--1-1--3-3--4-4--5-5--1-1--3-3--6-6--5-5--1-1--3-3--4-4-4----3-----5-5
E--3-3-----------------3-3------------4-4--3-3---------------------------3-3]

chorus: } x2
[e-------------3-3-----------------------------------------------------------
B--5-5--------3-3-----------------------------------------------------------
G--5-5--(x4)--4-4--(x4)-----------------------------------------------------
D--5-5--------5-5-----------------------------------------------------------
A--3-3--------5-5-----------------------------------------------------------
E-------------3-3-----------------------------------------------------------

solo:		e---------------------------------------------------------------------------
B---------------6-------------------------------------------6---------------
G-----3----3-5-6-------3--5-3-5-3-5~-----3-5L3-5L3-5L3-5L3-6-----3-5-3-5-5-6
D--5-----5----------5------------------5-----------------------5------------
A---------------------------------------------------------------------------
E---------------------------------------------------------------------------

e---------------------------------------------------------------------------
B--------------------------------------------6~-----------------------------
G5--3---------------------3---3-5-6-5-3-3-5-6~----3--5~--3-5~--3-5~-----3--5
D-----5-3-5--3-5~-----5-----5----------5--------5---------------------5-----
A-----------------------5---------------------------------------------------
E---------------------------------------------------------------------------

e---------------------------------------------------------------------------
B--------------------6~-----------------------------------------------------
G-5L3-5L3-5L3-5L3-5-6~-----3--5-3-5-5-6-5-3--------------------------------
D------------------------5------------------5-3-5---3-5~--------------------
A---------------------------------------------------------------------------
E---------------------------------------------------------------------------]
Добавлено: 31.10.2014
Другие материалы по этой песне:
  • Аккорды и текст

Страница создана 24.04.2012
http://primanota.ru/slackers/sarah-chords.htm
Привет, Гость.
Предлагаем пройти революционный курс по гитаре.
Подарок от PrimaNota.Ru, забирай!