PrimaNota.ru - самый крупный в мире бесплатный архив песенных текстов, аккордов, табулатур и нот


Slackers - Old Days - аккорды и текст, видео

Регистрация Запомнить меня
Войти через:  Facebook Google Twitter Vk Yandex Mail.ru

Slackers - Old Days - аккорды и текст, видео

Печатать
Просмотров: 97
Уроки эстрадного вокала в Санкт-Петербурге
Авторы музыки: Vic Ruggiero, Dave Hillyard
Авторы текста: Vic Ruggiero, Dave Hillyard
Old Days
Slackers
ARTIST: The Slacers
SONG: Old Days
ALBUM: Wasted Days (2000)
Tabbed By: Johnny Mineo
 
All upbeats in this song
The scratches are to show the feel for the song
 
CHORUS
     F           F7M         F7
e:---1--x-x--1---x--x-x--x---1--x-x--1--1--x-x--
B:---1--x-x--1---1--x-x--1---1--x-x--1--1--x-x--
G:---2--x-x--2---2--x-x--2---2--x-x--2--2--x-x--
D:---3--x-x--3---2--x-x--2---1--x-x--1--1--x-x--
A:---1--x-x--3---x--x-x--x---3--x-x--3--3--x-x--
E:---1--x-x--1---1--x-x--1---1--x-x--1--1--x-x--
 
   Abm Gm                       C7
e:---4\3--3--x-x--3--3--x-x--3--3--x-x--3--3--x-x--3--
B:---4\3--3--x-x--3--3--x-x--3--5--x-x--5--5--x-x--5--
G:---4\3--3--x-x--3--3--x-x--3--3--x-x--3--3--x-x--3--
D:---6\5--5--x-x--5--5--x-x--5--5--x-x--5--5--x-x--5--
A:---6\5--5--x-x--5--5--x-x--5--3--x-x--3--3--x-x--3--
E:---4\3--3--x-x--3--3--x-x--3------------------------
 
     F           F7M                 F7
e:---1--x-x--1---x--x-x--x---1--x-x--1--1--x-x--
B:---1--x-x--1---1--x-x--1---1--x-x--1--1--x-x--
G:---2--x-x--2---2--x-x--2---2--x-x--2--2--x-x--
D:---3--x-x--3---2--x-x--2---1--x-x--1--1--x-x--
A:---1--x-x--3---x--x-x--x---3--x-x--3--3--x-x--
E:---1--x-x--1---1--x-x--1---1--x-x--1--1--x-x--
 
   Abm Gm            C7         F
e:---4\3--3--x-x--3--3--x-x--3--1--x-x--1--1--x-x--1--
B:---4\3--3--x-x--3--5--x-x--5--1--x-x--1--1--x-x--1--
G:---4\3--3--x-x--3--3--x-x--3--2--x-x--2--2--x-x--2--
D:---6\5--5--x-x--5--5--x-x--5--3--x-x--3--3--x-x--3--
A:---6\5--5--x-x--5--3--x-x--3--3--x-x--3--3--x-x--3--
E:---4\3--3--x-x--3-------------1--x-x--1--1-------1--
                 F        F7M          F7
Save a smile for me...
Abm    Gm                 C7
Though you, no longer...
                 F        F7M          F7 
Save a smile for me...
Abm    Gm          C7     F
Someday, you'll be lonely too
 
VERSE
     Cm                  Bbm
e:---8----8----8----8----6----6----6----6---
B:---8----8----8----8----6----6----6----6---
G:---8----8----8----8----6----6----6----6---
D:---10---10---10---10---8----8----8----8---
A:---10---10---10---10---8----8----8----8---
E:---8----8----8----8----6----6----6----6---
 
     Am                  Gm
e:---5----5----5----5----3----3----3----3---
B:---5----5----5----5----3----3----3----3---
G:---5----5----5----5----3----3----3----3---
D:---7----7----7----7----5----5----5----5---
A:---7----7----7----7----5----5----5----5---
E:---5----5----5----5----3----3----3----3---
 
     Cm                  Bbm
e:---8----8----8----8----6----6----6----6---
B:---8----8----8----8----6----6----6----6---
G:---8----8----8----8----6----6----6----6---
D:---10---10---10---10---8----8----8----8---
A:---10---10---10---10---8----8----8----8---
E:---8----8----8----8----6----6----6----6---
 
     Am                  Gm        C7
e:---5----5----5----5----3----3----3----3---
B:---5----5----5----5----3----3----5----5---
G:---5----5----5----5----3----3----3----3---
D:---7----7----7----7----5----5----5----5---
A:---7----7----7----7----5----5----3----3---
E:---5----5----5----5----3----3-------------
          Cm                        Bbm
All these things that I think...
            Am                        Gm
Thinking of you...
        Cm                        Bbm
Still I stare at my drink...
              Am                        Gm        C7
A soft golden you...
 
Email me for lyrics or any thing else at
JohnnyMineo@hotmail.com

________________________________________________________________________________
     
Добавлено: 30.09.2013
Другие материалы по этой песне:
  • Аккорды и текст

Страница создана 30.09.2013
http://primanota.ru/slackers/old-days-chords.htm
Привет, Гость.
Предлагаем пройти революционный курс по гитаре.
Подарок от PrimaNota.Ru, забирай!