PrimaNota.ru - самый крупный в мире бесплатный архив песенных текстов, аккордов, табулатур и нот


Slackers - Ill Stay Away - аккорды и текст, видео

Регистрация Запомнить меня
Войти через:  Facebook Google Twitter Vk Yandex Mail.ru

Slackers - Ill Stay Away - аккорды и текст, видео

Печатать
Просмотров: 99
Уроки эстрадного вокала в Санкт-Петербурге
Ill Stay Away
Slackers
ARTIST: The Slackers
SONG: I'll Stay Away

ALBUM: Old Days (2003)

Tabbed By: Johnny Mineo 

CHORDS USED IN SONG:
    Bm       D       G      G7
e:---7---|-------|---3---|---3---|
B:---7---|---7---|---3---|---3---|
G:---7---|---7---|---4---|---4---|
D:---9---|---7---|---5---|---3---|
A:---9---|---5---|---5---|---5---|
E:---7---|-------|---3---|---3---|
    D7      Em      A7
e:---5---|---7---|---5---|
B:---7---|---8---|---5---|
G:---5---|---9---|---6---|
D:---7---|---9---|---5---|
A:---5---|---7---|---7---|
E:-------|-------|---5---|
The entire song is all upbeats
The and of every beat

 

VERSE

Bm        D         Bm        D
//// //// //// //// //// //// //// //// 

 

CHORUS

G    G7   D    Bm
//// //// //// ////
Em   A7   D    D7
//// //// //// ////
G    G7   D    Bm
//// //// //// ////
Em   A7   D
//// //// ////
For the solo, you just play the same structure,
in the same order.  There you have it.
Any questions or concerns, please email me at
JohnnyMineo@hotmail.com

________________________________________________________________________________
     
Добавлено: 28.07.2013
Другие материалы по этой песне:
  • Аккорды и текст

Страница создана 28.07.2013
http://primanota.ru/slackers/ill-stay-away-chords.htm
Привет, Гость.
Предлагаем пройти революционный курс по гитаре.
Подарок от PrimaNota.Ru, забирай!