PrimaNota.ru - самый крупный в мире бесплатный архив песенных текстов, аккордов, табулатур и нот


Slackers - And i wonder - аккорды и текст, видео

Регистрация Запомнить меня
Войти через:  Facebook Google Twitter Vk Yandex Mail.ru

Slackers - And i wonder - аккорды и текст, видео

Печатать
Просмотров: 70
And i wonder
Slackers



Date: Mon, 16 Jan 2006 14:07:46 -0500
From: Johnny Mineo 
Subject: s/slackers/and_i_wonder.crd

Song: And I Wonder
Artist: The Slackers
Album: The Question
Tabbed by: Johnny Mineo
 
Chords Used:
     G       C      Eb7      Am      D7      F   
e:---3---|---3---|---6---|---5---|---5---|---1---|
B:---3---|---5---|---8---|---5---|---7---|---1---|
G:---4---|---5---|---6---|---5---|---5---|---2---|
D:---5---|---5---|---8---|---7---|---7---|---3---|
A:---5---|---3---|---6---|---7---|---5---|---3---|
E:---3---|-------|-------|---5---|-------|---1---|
     Cm      Bm
e:---3---|---2---|
B:---4---|---3---|
G:---5---|---4---|
D:---5---|---4---|
A:---3---|---2---|
E:-------|-------|
 
Upbeats
 
Chord Progression (repeats itself for solo)
 
G           C    Eb7    G
//// ////   //// ////   //// ////
G           C    Eb7    Am   D7
//// ////   //// ////   //// ////
Cm   Bm     Am 
//// ////   //// ////
Cm   Bm     Am   D7
//// ////   //// ////
F           G
//// ////   //// ////
F           G
//// ////   //// ////
 
Any questions on lyrics or whatever, email me.
JohnnyMineo@hotmail.com
Step Easy.

____________________________________________________________________________


Добавлено: 25.02.2014
Вам также может быть интересно:
Другие материалы по этой песне:
  • Аккорды и текст

Страница создана 25.02.2014
http://primanota.ru/slackers/and-i-wonder-chords.htm
Привет, Гость.
Предлагаем пройти революционный курс по гитаре.
Подарок от PrimaNota.Ru, забирай!