PrimaNota.ru - самый крупный в мире бесплатный архив песенных текстов, аккордов, табулатур и нот


Skyway - Birthdays Are For Sluts And Losers - таба, видео

Регистрация Запомнить меня
Войти через:  Facebook Google Twitter Vk Yandex Mail.ru

Skyway - Birthdays Are For Sluts And Losers - таба, видео

Печатать
Просмотров: 66
Уроки эстрадного вокала в Санкт-Петербурге
Birthdays (are for sluts and losers) – skyway! 

My youtube cover if you need help working it out http://www.youtube.com/watch?v=gVoKSJhuCI4 
Any questions email me at wasted-youth182@hotmail.com 

tuning drop D 



intro

E|---------------------------------------------------------------------|
B|--------11-9-8--------------11-9-8------------11-9-8-11/13/11--------|
G|---888----------8h10---8888--------888h10p8--------------------------|
D|---------------------------------------------------------------------|
A|---------------------------------------------------------------------|
D|---------------------------------------------------------------------|


E|---------------------------------------------------------------------|
B|------11-9-8---------------------------------------------------------|
G|--888--------888h10-----------x2-------------------------------------|
D|---------------------------------------------------------------------|
A|---------------------------------------------------------------------|
D|---------------------------------------------------------------------|

Verse 1
E|---------------------------------------------------------------------|
B|--------------------------------------11-11-11----11-8h9p8-----------|
G|-----------------------------------------------88----------10-8-10/12|
D|--66x66/88—88/55-55/66—556/66----------------------------------------|
A|--66x66/88—88/66-66/66—666/66---x2-----------------------------------|
D|--66x66/88—88/55-55/66—555/66----------------------------------------|

 Chorus 
E|---------------------------------------------------------------------|
B|---------------------------------------------------------------------|
G|----------------------------8----------------------------------------|
D|---666---6--1---3--3--------8---find your own strumming patterns-----|
A|---666---6--1---3--3-x4-----6----------------------------------------|
D|---666---6--1---1--3-------------------------------------------------|

Repeat verse 1 once 

Chorus 

Bridge 
E|---------------------------------------------------------------------|
B|--palm mute all------------------------------------------------------|
G|-----------------888888---88888--------------------------------------|
D|-----------------888888---88888---x2---------------------------------|
A|-----------------666666---88888--------------------------------------|
D|---------------------------------------------------------------------|

solo
E|---------------------------------------------------------------------|
B|--99h8-9h8-------8----8h9--8-------11--------------------------------|
G|-----------88h10---10--------10-10^--10^8---------8------------------|
D|------------------------------------------10-8-10---10---------------|
A|---------------------------------------------------------------------|
D|---------------------------------------------------------------------|


E|-------------------------11----11-----11/13/11p10h11p10--------------|
B|------------------9h8----------------------------------11-13---------|
G|--8h7---10---10-------8-----8-----8----------------------------------|
D|------8----8---------------------------------------------------------|
A|---------------------------------------------------------------------|
D|---------------------------------------------------------------------|


E|-11----13-11--------15/16/15-----------------------------------------|
B|----13------13--11---------------------------------------------------|
G|---------------------------------------------------------------------|
D|---------------------------------------------------------------------|
A|---------------------------------------------------------------------|
D|---------------------------------------------------------------------|

Chorus till finish. 
Добавлено: 20.11.2013
Вам также может быть интересно:
Другие материалы по этой песне:
  • Аккорды и текст

Страница создана 20.11.2013
http://primanota.ru/skyway/birthdays-are-for-sluts-and-losers-chords.htm
Привет, Гость.
Предлагаем пройти революционный курс по гитаре.
Подарок от PrimaNota.Ru, забирай!