PrimaNota.ru - самый крупный в мире бесплатный архив песенных текстов, аккордов, табулатур и нот


Skyway Flyer - Endless Roads - аккорды и текст, видео

Регистрация Запомнить меня
Войти через:  Facebook Google Twitter Vk Yandex Mail.ru

Skyway Flyer - Endless Roads - аккорды и текст, видео

Печатать
Просмотров: 85
Уроки эстрадного вокала в Санкт-Петербурге
Endless Roads
Skyway Flyer
Song: Endless Roads
Artist: Skyway Flyer
Written by Jason Munday

INTRO x2
A   D   A   Dsus4-D-Dsus2
F7  Bm7 F7  Bm7


VERSE 1
A       D        A      Dsus4-D-Dsus2
    Its taken me years 
            F7    Bm7  F7   Bm7
    Just to make i--t  this far
A   D            A      Dsus4-D-Dsus2
    And Im still here
       F7     Bm7   F7    Bm7
Having found new beginnings
      A            D
All I need is some hope
     A                 Dsus4-D-Dsus2  F7  Bm7  F7 Bm7
That youll hear me and understand     clearly
        A           D
And now all that Im hoping
   A            Dsus4-D-Dsus2  F7  Bm7  F7 Bm7
Is youd want to follow   me    freely


CHORUS
G         D
Come with me
      A
Walk by my side
G                  D
Will you, will you come
         A         D
We could walk together
G       D             A
Endless roads beg for travelers
G        D   (riff 1)
Come and run with me

RIFF 1
E -2h3p2----|
B -------3--|
G ----------|
D ----------|
A ----------|
E ----------|

POST CHORUS x2
A   D   A   Dsus4-D-Dsus2
F7  Bm7 F7  Bm7


VERSE 2 same as verse 1
A    D          A      Dsus4-D-Dsus2
     Hungry for thrill
            F7     Bm7  F7     Bm7
     We can call on the night sky
A    D                 A    Dsus4-D-Dsus2
     It brings me back down
             F7  Bm7  F7      Bm7
     Sees me taking a deep breath
       A            D            A
All it takes is one look in your eyes
        Dsus4-D-Dsus2       F7 Bm7 F7 Bm7    
And the world       stops turning
       A         D           A              Dsus4-D-Dsus2
All Im asking of you is that you would stop too
    F7       Bm7  F7 Bm7
And enjoy this

CHORUS
G         D
Come with me
      A
Walk by my side
G                  D
Will you, will you come
         A         D
We could walk together
G       D             A
Endless roads beg for travelers
G        D   (riff 1)
Come and run with me

SOLO
Acoustic part:
E -2-----------------------------------------------------------------|
B ---2h4p2p0--------------------------------(0)------------(0)-------|
G -----------2p0-2h4p2p0-----------------------(0)------------(0)----|
D -----------------------2p0-2/4\2p0---2--(2)-----------(2)----------|
A -------------------------------------2-------------(2)-------------|
E -------------------------------------0-----------------------------|

E -----------------------------------------|
B -----------------------------------------|
G -----2h4----2/4-4/6-6/7------------------|
D -2h4-----00-2/4-4/6-6/7------------------|
A -----------------------------------------|
E -----------------------------------------|

E -----------------------------------------|
B -----------------------------------------|
G -777--9-9-9-9/10---6666h7----------------|
D -999-11111111/12---777777----------------|
A -----------------------------------------|
E -----------------------------------------|

E -----------------------------------------|
B -----------------------------------------|
G -2/4\2p0---------------------------------|
D ---------2p0---0h2-----------------------|
A -------------2---------------------------|
E -----------------------------------------|

Electric part:  PLAY TWICE
E ---------------------------------------------|
B -12/13\12-10h12p10-9h10p9-7--9h10p9-7h9p7-5--|
G ---------------------------------------------|
D ---------------------------------------------|
A ---------------------------------------------|
E ---------------------------------------------|

E -------------------------------------------------|
B -12/13\12-10h12p10-9h10p9-7--9h10p9-7h9p7-10-12--|
G -------------------------------------------------|
D -------------------------------------------------|
A -------------------------------------------------|
E -------------------------------------------------|


CHORUS
G         D
Come with me
      A
Walk by my side
G                  D
Will you, will you come
         A         D
We could walk together
G       D             A
Endless roads beg for travelers
G        D   (riff 1)
Come and run with me

OUTRO x2
A   D   A   Dsus4-D-Dsus2
F7  Bm7 F7  Bm7  D



Chords used
A       002220
D       xx0232
Dsus4   xx0233
Dsus2   xx0230
F7      131211
Bm7     224232
G       320033



Notes:
For the D chords in the intro/verse, a hammer-on on the E string from 0h2 sounds 

good. For the Bm7 in intro/verse, a hammer-on on the B string from 0h1 sounds 

good. I know this isnt perfect so feel free to make corrections or suggestions. 

Hope you enjoy it, its a great song
Добавлено: 11.11.2013
Другие материалы по этой песне:
  • Аккорды и текст

Страница создана 11.11.2013
http://primanota.ru/skyway-flyer/endless-roads-chords.htm
Привет, Гость.
Предлагаем пройти революционный курс по гитаре.
Подарок от PrimaNota.Ru, забирай!