PrimaNota.ru - самый крупный в мире бесплатный архив песенных текстов, аккордов, табулатур и нот


Skyhawk Drive - Whisper - таба, видео

Регистрация Запомнить меня
Войти через:  Facebook Google Twitter Vk Yandex Mail.ru

Skyhawk Drive - Whisper - таба, видео

Печатать
Просмотров: 160
Tuning: Drop Db/C#

INTRO 
Electric 1
                
Eb|--------12-12--------------------------------------------------|
Bb|--10-10-------12-12-13-13-------12-13h-12p-10------------------|
Gb|--------------------------12-----------------------------------|
Db|-----------------------------10--------------------------------| X3
Ab|---------------------------------------------------------------|
Db|---------------------------------------------------------------|
        
INTRO (Part 2)

Eb|---------------------------------------------------------------|
Bb|--------13-13-------13-13-12-13-12-13-12-13-12-10--------------|
Gb|--12-12-------12-12--------------------------------------------|
Db|---------------------------------------------------------------|
Ab|---------------------------------------------------------------| 
Db|---------------------------------------------------------------|

Electric 2
               
Eb|---------------------------------------------------------------|
Bb|---------------------------------------------------------------|
Gb|------------------9999-------4b--------------------------------|
Db|---7----10---5----xxxx---3---x----3------2-2-3-3---------------|
Ab|---7----10---5----7777---3---2b---3------2-2-3-3---------------|
Db|---7----10---5-----------3--------3------2-2-3-3---------------|

INTRO X2 then end with an 8 then 10 on the 5th string (Bb)

VERSE
Electric 1+2    
                
Eb|-----------------------------------------------------------|
Bb|-----------------------------------------------------------|
Gb|-----------------------------------------------------------|
Db|----7----3----0----10--------------------------------------|
Ab|----7----3----0----10--------------------------------------|
Db|----7----3----0----10--------------------------------------|
       *    *    *    *  

PRECHORUS  (play with verse^)

 Electric 1
 Clean
Eb|----- ----- ----- ----- ------
Bb|-13-- -12-- -17-- -13-- -12---
Gb|---14 ---14 ---14 ---14 ---14-
Db|----- ----- ----- ----- ------ (listen to song for strumming)
Ab|----- ----- ----- ----- ------
Db|----- ----- ----- ----- ------

  -------------|
  -------------|
  --17-14-12-9-|
  --x--x--x--x-|
  --15-12-10-7-|
  -------------|


CHORUS

Electric 2

Eb|---------------------------------------------------------------|
Bb|---------------------------------------------------------------|
Gb|-----------------------9---------------------------------------|
Db|---3---5---2--3--5---------7---5---2-3--2--3-------------------|
Ab|---3---5---2--3--5-----7---7---5---2-3--2--3-------------------|
Db|---3---5---2--3--5---------7---5---2-3--2--3-------------------|



Electric 1

Eb|------------------------------|
Bb|------------------------------|
Gb|-12-7-9----9-7-5-7-4-5----5-7-|
Db|-x--x-x----x-x-x-x-x-x----x-x-|  (listen to song for strumming)
Ab|-10-5-7----7-5-3-5-2-3----3-5-|
Db|------------------------------|


INTRO

INTRO (Part 2)

INTRO

VERSE

BRIDGE

Electric 2

Eb|---------------------------------------------------------------|
Bb|---------------------------------------------------------------|
Gb|----------------------------------7----------------------------|
Db|-----7----3----5-----3---0----3---7----------------------------|
Ab|-----7----3----5-----3---0----3---5----------------------------|
Db|-----7----3----5-----3---0----3--------------------------------|

SOLO

ELECTRIC 1

Eb|------------14-12----------------------------------------------|
Bb|---10-12-13----------------------------------------------------|
Gb|---------------------------------------------------------------|
Db|---------------------------------------------------------------|
Ab|---------------------------------------------------------------|
Db|---------------------------------------------------------------|

CHORUS 

INTRO
Добавлено: 05.07.2013
Вам также может быть интересно:
Другие материалы по этой песне:
  • Аккорды и текст

Страница создана 05.07.2013
http://primanota.ru/skyhawk-drive/whisper-chords.htm
Привет, Гость.
Предлагаем пройти революционный курс по гитаре.
Подарок от PrimaNota.Ru, забирай!