PrimaNota.ru - самый крупный в мире бесплатный архив песенных текстов, аккордов, табулатур и нот


Skye Eric - Black Orpheus - таба, видео

Регистрация Запомнить меня
Войти через:  Facebook Google Twitter Vk Yandex Mail.ru

Skye Eric - Black Orpheus - таба, видео

Печатать
Просмотров: 200
The following is my arrangement of Black Orphues. A
number of people have e-mailed me about tabbing it
out, so I finally took a stab at it. I have a few
disclaimers about this tab: I wasn^Òt ambitious or
patient enough to sit down with the CD and figure out
exactly how I did it on the recording. This is based
on memory, and how I do it today, which is probably
pretty close. I also didn^Òt go to any length to get
every little thing, particularly any percussive
things. It^Òs more of an outline really. As for tips:
Left hand fingering is very important. As a rule, let
things ring as long as possible, particularly the two
bass notes in each bar, so build your fingerings
around that. The bass notes always fall on beat one
and three ( even if they don^Òt appear that way in the
tab ), so everything else should fall into place
rhythmically if you can make that happen. Lastly, the
chord names I^Òve included refer to the overall
harmony, and or the original chart. In many cases the
actual chord I play will be an inversion, an
extension, or something else all together. Be sure to
put this into the font ^Ócourier^Ô to make everything
line up correctly. At present you can hear a mp3 of me
playing it at http://www.ericskye.com/
I declare that this file is all my own work.


					Black Orpheus

Intro:
    Am7    D7        Bm7b5    E7b9     Am7     D7     Bm7b5   E7b9
 
|----------------|-----------------|----------------|---------------|
 
|----5-5----5----|-------7-----7---|-----5-5----5---|-------7-----7-|
 
|----5-5----5----|-------7-----7---|-----5-5----5---|-------7-----7-|
 
|--5-----4-------|-5-s-7-----6-----|--5------4------|-5-s-7----6----|
 
|----------------|-----------------|----------------|---------------|
 
|----------------|-----------------|----------------|---------------|

    Am7              Bm7b5    E7b9      Am7           Bm7b5   E7b9
 
|----------------|-----------------|----------------|-------------0-||
 
|----5-5-----5---|-------7-----7---|----5-5----5----|-------5-------||
 
|----5-5-----5---|-------7-----7---|----5-5----5----|-------5-------||
 
|----5-5-----5---|-------7-----6---|----5-5----5----|-------5-------||
 
|----------------|-----------------|----------------|---------------||
 
|--5------0------|-5-s-7-----0-----|--5------0------|-5-s-7----0----||
Head:
   Am7               Bm7b5   E7b9      Am7           Bm7b5   E7b9
 
|---8---7-----5--|---5-----4---7---|----------------|------------0--|
 
|---5------------|---6-----6-------|---5------------|---------------|
 
|---5------------|---7-----7-------|---5--5----5----|----7-----7----|
 
|----------------|-----------------|---5--5----5----|----7-----6----|
 
|----------------|-----------------|----------------|---------------|
 
|---5------0-----|---7-----0-------|---5-----0------|--7-----0------|
 
   Am7 		   Dm7     G7         Cmaj7          C#07  A7b9
 
|---8---7-----5--|--5------3---7---|----------------|----------------|
 
|---5------------|--6------3-------|--5-------------|--------5-s-6-7-|
 
|---5------------|--5------4-------|--4--4----4-----|---3----6-------|
 
|----------------|-----------------|--5--5----5-----|---5----5-------|
 
|----------------|--5--------------|--3-------------|-4----0---------|
 
|---5------0-----|---------3-------|--------3-------|----------------|



    Dm7              G7                 Cmaj7         Fmaj7
 
|--5-------------|--------0-h-1----|--3-------------|-------------0--|
 
|--6-------------|----3------------|--0--1---1------|-------1-h-3----|
 
|--5--7--7-------|----4------------|--0-------------|-------2--------|
 
|----------------|----3---0--------|----------------|----------------|
 
|--5-------------|-----------------|--3-------------|-------3--------|
 
|--------5-------|--3--------------|---------3------|--1-------------|

    Bm7b5 		  E7b9 		   Am7	      Bm7b5   E7b9
 
|--1-------------|-----------------|----------------|-------------0--|
 
|--3---0--0------|----------0-1-3--|--5-------------|----------------|
 
|--2-------------|----------1------|--5--5-----5----|----7------7----|
 
|----------------|----------3------|--5--5-----5----|----7------6----|
 
|--2-------------|--------2--------|----------------|----------------|
 
|---------1------|--0--------------|--5-----0-------|--7-----0-------|

    Am7              Bm7b5   E7b9       Am7           Bm7b5   E7b9
 
|---8---7-----5--|---5-----4---7---|----------------|------------0--|
 
|---5------------|---6-----6-------|---5------------|---------------|
 
|---5------------|---7-----7-------|---5--5----5----|----7-----7----|
 
|----------------|-----------------|---5--5----5----|----7-----6----|
 
|----------------|-----------------|----------------|---------------|
 
|---5------0-----|---7-----0-------|---5-----0------|--7-----0------|
 
 
    Em7b5             Am7 		    Dm7
 
|--6-----5-------|-----------------|---5------------|---------------|
 
|--8---------8---|---8-------6-p-5-|---6--6-----6---|----6-6--------|
 
|--7-------------|---5-------------|---5--5-----5---|----5-5-----7--|
 
|----------------|---5-------------|----------------|---------------|
 
|----------------|-----------------|----------------|---------------|
 
|--7-------------|---------7-------|---5------------|--5------------|
 
|--------7-------|---5-------------|----------5-----|---------5-----|


    Dm7   Dm7/C      Bm7b5  E7b9       Am7    Am7/G   Fmaj7
 
|----------------|--7--------------|--------------0-|--5---------4--|
 
|--3-----5-h-6---|--6--------------|--1------1-h-3--|--5------------|
 
|--5-----5-------|--7--------------|--0------0------|--5------------|
 
|--3-------------|-----------------|--2------2------|---------------|
 
|--5-----3-------|-----------------|--0-------------|--------3------|
 
|----------------|--7-------0------|-------3--------|--1------------|

    Bm7b5            E7b9              Am7            Bm7b5 E7b9 
 
|--0-------------|-----------------|--5-------------|---------------|
 
|--6-------------|---5-----9-------|--5-------------|---------------|
 
|--7-------------|---7-------------|--5--5-----5----|----7-----7----|
 
|----------------|---6-------------|-----5-----5----|----7-----6----|
 
|---------8------|---7-------------|----------------|---------------|
 
|--7-------------|---------7-------|--5------0------|--7-----0------|




Solo
    Am7              Bm7b5    E7b9     Am7            Bm7b5   E7b9
 
|--8-p-5---5-----|-10-p-7----------|----------------|---------------|
 
|--------8----8--|--------9--8--6--|--5-------------|---------------|
 
|----------------|-----------------|--5--5-----5----|----7-----7----|
 
|----------------|-----------------|--5--5-----5----|----7-----6----|
 
|--0-------------|-----------------|----------------|---------------|
 
|----------0-----|-7---------0-----|--5------0------|--7-----0------|

    Am7              Dm7     G7        Cmaj7          C#07   A7b9
 
|--8-p-5----5----|-----------------|----------------|---------------|
 
|--------8-----8-|--6-p-5-------6--|--5-------------|----5----------|
 
|----------------|--5-----7-4------|--4--4----4-----|----3-3-----3--|
 
|----------------|----------3------|--5--5----5-----|----5-5-----5--|
 
|--0-------------|--5--------------|--3-------------|--4------0-----|
 
|-----------0----|----------3------|--------3-------|---------------|

    Dm7              G7b9 		  Cmaj7           Fmaj7
 
|--5-------------|-----4---3-------|-8--7---5------|-5-----------0-|
 
|--6--6----------|-------------6---|------------8--|-5--8----6-----|
 
|--5-----7---5---|--4--------------|---------------|-5-------------|
 
|----------------|--3--------------|--------5------|---------------|
 
|--5-------------|---------0-------|---------------|-8-------------|
 
|--------5-------|--3--------------|-8-------------|---------8-----|

    Bm7b5           E7b9               Am7           Bm7b5   E7b9
 
|------------7---|-10-p-7----------|---------------|---------------|
 
|--------9-------|---------9-------|--5------------|---------------|
 
|-7--10----------|-------------10--|--5--5-----5---|----7-----7----|
 
|-7--------------|-----------------|--5--5-----5---|----7-----6----|
 
|--------8-------|-7---------------|---------------|---------------|
 
|-7--------------|---------7-------|--5------0-----|--7-----0------|

    Am7               Bm7b5    E7b9      Am7          Bm7b5   E7b9
 
|--8-p-5---5-----|-10-p-7----------|---------------|---------------|
 
|-------8-----8--|--------9--8--6--|--5------------|---------------|
 
|----------------|-----------------|--5--5-----5---|----7-----7----|
 
|----------------|-----------------|--5--5-----5---|----7-----6----|
 
|--0-------------|-----------------|---------------|---------------|
 
|----------0-----|-7---------0-----|--5------0-----|--7-----0------|

   Em7b5   		 A7b9       	 Dm7 			G7
 
|-6--------------|----6---5--------|----------------|-----4--3-----|
 
|----8----5------|-------------8---|--6--5----------|------------6-|
 
|------------7---|-6---------------|--5-----7---5---|--4-----------|
 
|----------------|-----------------|----------------|--------------|
 
|-7--------------|-0---------------|--5-------------|--------5-----|
 
|---------6------|--------0--------|--------5-------|--3-----------|






In free time>>>

 Cmaj7 Fmaj7 Bm7b9    E7b9     Am7
|-----------|-5---------------|-----------------------------------------|
|-5-----1---|---6---0---------|-----------------------------------------|
|-4-----2---|-----7---1-------|-------------------------------5-h-7-h-9-|
|-5-----2---|-----------2-0---|---------------------5-h-7-h-9-----------|
|-3---------|---------------2-|-----------5-h-7-h-8---------------------|
|-------1---|-5-------0-------|-5-h-7-h-8-------------------------------|

Trim
 Fmaj7
|----------------------------------5-h-6-h-8---|
|-----------------------5-h-6-h-8--------------|
|------------3-h-5-h-7-------------------------|
|-3-h-5-h-7------------------------------------|
|----------------------------------------------|
|----------------------------------------------|

Bm7b5  				E7b9
--------------------5-h-7-h-8-10-p-7---------------------------
----------5-h-6-h-8------------------9--------0----------------
4-h-5-h-7------------------------------10-p-7------------------
------------------------------------------------6---0----------
--------------------------------------------------7------------
------------------------------------------------------7-p-4-p-0
Back to begining. After two heads go to ending:

  Am7     D7       Bm7b5    E7b9     Am7     D7      Bm7b5   E7b9
|----------------|-----------------|----------------|---------------|
|----5-5----5----|--------7-----7--|-----5-5----5---|-------7-----7-|
|----5-5----5----|--------7-----7--|-----5-5----5---|-------7-----7-|
|--5-----4-------|-5-s-7------6----|--5------4------|-5-s-7-----6---|
|----------------|-----------------|----------------|---------------|
|----------------|-----------------|----------------|---------------|
  Am7     D7       Bm7b5    E7b9     Am7     D7      Bm7b5   E7b9    
|----------------|-----------------|----------------|---------------|
|----5-5----5----|--------7-----7--|-----5-5----5---|-------7-----7-|
|----5-5----5----|--------7-----7--|-----5-5----5---|-------7-----7-|
|--5-----4-------|-5-s-7------6----|--5------4------|-5-s-7-----6---|
|----------------|-----------------|----------------|---------------|
|----------------|-----------------|----------------|---------------|

Am
|-5-||
|---||
|---||
|---||
|-0-||
|---||

=====
http://www.ericskye.com

     
Добавлено: 12.11.2013
Другие материалы по этой песне:
  • Аккорды и текст

Страница создана 12.11.2013
http://primanota.ru/skye-eric/black-orpheus-chords.htm
Привет, Гость.
Предлагаем пройти революционный курс по гитаре.
Подарок от PrimaNota.Ru, забирай!