PrimaNota.ru - самый крупный в мире бесплатный архив песенных текстов, аккордов, табулатур и нот


Skydiggers - Shed Calm Down - таба, видео

Регистрация Запомнить меня
Войти через:  Facebook Google Twitter Vk Yandex Mail.ru

Skydiggers - Shed Calm Down - таба, видео

Печатать
Просмотров: 191
TITLE:  She'd Calm Down.
ARTIST:  Skydiggers.
ALBUM:  Restless / Still Restless. 

NOTES:  As with all Skydiggers' tunes:  very easy.  This one's
	a waltz, by the way.



Chords Used:


D	xx0232
Dsus2	xx0230
G	320003
G6	320030
A	x02220
Asus4	x02230



Picking Pattern:



  D	Dsus2  G        G6     A      Asus4   D       Dsus2

E|--2-----0h2--|---3-------0--|---0----------|---2-----0h2--|
B|----3--------|-----0---3----|-----2---2/3--|-----3--------|
G|------2------|-------0------|-------2------|-------2------|
D|0------------|--------------|--------------|0-------------|
A|-------------|--------------|0-------------|--------------|
E|-------------|3-------------|--------------|--------------|


This repeats throughout the entire song:



  D	Dsus2  G        G6     A      Asus4   D       Dsus2*

E|--2-----0h2--|---3-------0--|---0----------|---2-----0h2--|
B|----3--------|-----0---3----|-----2---2/3--|-----3--------|
G|------2------|-------0------|-------2------|-------2------|
D|0------------|--------------|--------------|0-------------|
A|-------------|--------------|0-------------|--------------|
E|-------------|3-------------|--------------|--------------|

* I do hear a variation on this chord every now and then, but
  I haven't taken the time to count out exactly where it occurs.
  Here's the variation, anyway:

 
  D	Dsus2  G        G6     A      Asus4   D       Dsus2

E|--2-----0h2--|---3-------0--|---0----------|---2-----0----|
B|----3--------|-----0---3----|-----2---2/3--|-----3-----3--|
G|------2------|-------0------|-------2------|-------2------|
D|0------------|--------------|--------------|0-------------|
A|-------------|--------------|0-------------|--------------|
E|-------------|3-------------|--------------|--------------|



That should be it.  Corrections, comments, threats of bodily
harm are always welcome and ignored.


"The large print giveth and the small print taketh away..."
- Tom Waits

Beer Mail, brought to you by your friends at beer.com.

     
Добавлено: 29.10.2013
Другие материалы по этой песне:
  • Аккорды и текст

Страница создана 29.10.2013
http://primanota.ru/skydiggers/shed-calm-down-chords.htm
Привет, Гость.
Предлагаем пройти революционный курс по гитаре.
Подарок от PrimaNota.Ru, забирай!