PrimaNota.ru - самый крупный в мире бесплатный архив песенных текстов, аккордов, табулатур и нот


Skunk Anansie - Pickin On Me - аккорды и текст, таба, видео

Регистрация Запомнить меня
Войти через:  Facebook Google Twitter Vk Yandex Mail.ru

Skunk Anansie - Pickin On Me - аккорды и текст, таба, видео

Печатать
Просмотров: 214
Авторы: Skin, Len Arran

Pickin On Me
Skunk Anansie
		   From CB@education.uct.ac.za Wed Apr  9 12:51:51 1997

Song: Pickin' On Me
Band: Skunk Anansie
Album: Stoosh

Here is my version of Pickin' on Me from Stoosh.

Verse

E: ---------2^0----------             ------3^0-------------5^0---
B: ---------------0-------             ------------0---------------0-
G: ------------------0----            ---------------0--------------0
D:------------------------       X2 -------------------------------
A:------------------------             3-3--------------5-5---------
E: 0-0-------------------              -------------------------------


Chorus

E: -----2^0------------2^0-----------2^0---------
B: ----------0---------------0---------------0------
G: ------------0---------------0----------------0---
D: 0-0-----------------------------------------------X2
A: ---------------3-3--------------------------------
E: ---------------------------------0-0---------------

End of Chorus Riff

E:---------------------------(12)---Harmonics
B:---------------------------(12)---
G:-----------------------------------
D:-----------------------------------
A: ------------3--5/7---------------
E: --0--3--5------------0-----------

Well there it is. Send any more requests for Skunk songs to me.

Cheers
Duncan

**********************************************************************
chris breen                         tel: (021) 650-2757
school of education                 internet: cb@education.uct.ac.za
university of cape town             pmail: education/cb
rondebosch
7700 south africa                   fax: (021) 650-3489
**********************************************************************
From 960327@ps.aau.dk Sun Apr 27 11:07:33 1997



This is my version of Picking on me by Skunk Anansie, on Stoosh.
I think it is right.

Main Part:

E-|--------3p0-------|-------3p0-------|-------3p0-------|---------5p3--------|
B-|------------3p0---|------------3p0--|-----------3p0---|-------------5p3----|
G-|------------------|-----------------|-----------------|--------------------|
D-|------------------|-----------------|-----------------|--------------------|
A-|------------------|-----------------|-3-3-------------|-5-5----------------|
E-|-0-0--------------|-0-0-------------|-----------------|--------------------|

Chorus:

E-|-------5p3--------|---------3p0-----|-------3p0-------|---------3p0--------|
B-|-----------5p3----|-------------3p0-|------------3p0--|-------------3p0----|
G-|------------------|-----------------|-----------------|--------------------|
D-|------------------|-----------------|-----------------|--------------------|
A-|-5-5--------------|-3-3-------------|-----------------|--------------------|
E-|------------------|-----------------|-0-0-------------|-0-0----------------|

End of Chorus:

                                                                      harm.
E-|---------5p3------|----------3p0----|-----------------|-------------(12)---|
B-|------------5p3---|-------------3p0-|-----------------|-------------(12)---|
G-|------------------|-----------------|-----------------|-------------(12)---|
D-|------------------|-----------------|-----------0h2---|--------------------|
A-|-5-5--------------|-3-3-------------|------0h3--------|--------------------|
E-|------------------|-----------------|-0h3-----------0-|--------------------|

-----

Comments, etc?

960327@ps.aau.dk

Nikolaj     
Добавлено: 25.08.2013
Другие материалы по этой песне:

Страница создана 07.05.2012
http://primanota.ru/skunk-anansie/pickin-on-me-chords.htm
Привет, Гость.
Предлагаем пройти революционный курс по гитаре.
Подарок от PrimaNota.Ru, забирай!