PrimaNota.ru - самый крупный в мире бесплатный архив песенных текстов, аккордов, табулатур и нот


Skumdum - Vad Jag Undrar - текст песни, таба, видео

Регистрация Запомнить меня
Войти через:  Facebook Google Twitter Vk Yandex Mail.ru

Skumdum - Vad Jag Undrar - текст песни, таба, видео

Печатать
Просмотров: 226
Уроки эстрадного вокала в Санкт-Петербурге
-----------------------------------------------------------------------------

                             Vad Jag Undrar - Skumdum
-------------------------------------------------------------------------------
Tabbed by: Larssonhik
E-mail: larssonhik@gmail.com

Tuning: Standard

Intro: X4
e|---------------------------------------------------------------|
B|---------------------------------------------------------------|
G|-10-10-6-6-8-8-6-8-6-------------------------------------------|
D|-xxxxxxxxxxxxxxxxxxxx------------------------------------------|         
A|-8---8-4-4-6-6-4-6-4-------------------------------------------|
E|---------------------------------------------------------------|

Verse:
e|--------------------------------------------------------------------|
B|--------------------------------------------------------------------|
G|----66--------------------------------------------------------------|
D|-88-66-66-88--------------------------------------------------------|
A|-88-44-66-88--------------------------------------------------------|
E|-66----44-66--------------------------------------------------------|

e|-------------------------------------------------------|
B|-------------------------------------------------------|
G|--66---------------------------------------------------|      <--X3
D|--66-66-88---------------------------------------------|
A|--44-66-88---------------------------------------------|
E|-----44-66---------------------------------------------|

Intro: X4
e|---------------------------------------------------------------|
B|---------------------------------------------------------------|
G|-10-10-6-6-8-8-6-8-6-------------------------------------------|
D|-xxxxxxxxxxxxxxxxxxxx------------------------------------------|         
A|-8---8-4-4-6-6-4-6-4-------------------------------------------|
E|---------------------------------------------------------------|

Verse:
e|--------------------------------------------------------------------|
B|--------------------------------------------------------------------|
G|----66--------------------------------------------------------------|
D|-88-66-66-88--------------------------------------------------------|
A|-88-44-66-88--------------------------------------------------------|
E|-66----44-66--------------------------------------------------------|

e|-------------------------------------------------------|
B|-------------------------------------------------------|
G|--66---------------------------------------------------|      <--X3
D|--66-66-88---------------------------------------------|
A|--44-66-88---------------------------------------------|
E|-----44-66---------------------------------------------|

Pre-Chorus:
e|-----------------------------------------------------|
B|-----------------------------------------------------|
G|-----------------------------------------------------|   
D|-888888----------------------------------------------|
A|-888888----------------------------------------------|
E|-666666----------------------------------------------|

Chorus: X2
e|--------------------------------------------------------------|
B|--------------------------------------------------------------|
G|-6666---------------------------------------------------------|
D|-6666-6666-8888-6666------------------------------------------|
A|-4444-6666-8888-6666------------------------------------------|
E|------4444-6666-4444------------------------------------------|

Intro: X2
e|--------------------------------------------------------------|
B|--------------------------------------------------------------|
G|-10-10-6-6-8-8-6-8-6------------------------------------------|
D|-xxxxxxxxxxxxxxxxxxxx-----------------------------------------|         
A|-8---8-4-4-6-6-4-6-4------------------------------------------|
E|--------------------------------------------------------------|

Verse:
e|----------------------------------------------------------------|
B|----------------------------------------------------------------|
G|----66----------------------------------------------------------|
D|-88-66-66-88----------------------------------------------------|
A|-88-44-66-88----------------------------------------------------|
E|-66----44-66----------------------------------------------------|

e|-------------------------------------------------------|
B|-------------------------------------------------------|
G|--66---------------------------------------------------|      <--X3
D|--66-66-88---------------------------------------------|
A|--44-66-88---------------------------------------------|
E|-----44-66---------------------------------------------|

Pre-Chorus:
e|-----------------------------------------------------|
B|-----------------------------------------------------|
G|-----------------------------------------------------|   
D|-888888----------------------------------------------|
A|-888888----------------------------------------------|
E|-666666----------------------------------------------|

Chorus: X2
e|---------------------------------------------------------------|
B|---------------------------------------------------------------|
G|-6666----------------------------------------------------------|
D|-6666-6666-8888-6666-------------------------------------------|
A|-4444-6666-8888-6666-------------------------------------------|
E|------4444-6666-4444-------------------------------------------|

Solo:
e|----------------------------------------------------|
B|----------------------------------------------------|
G|-10-10-10-10-10-10-10-10-10-10-10-10-12-10-6-8------|
D|-xxxxxxxxxxxxxxxxxxxxxxxxxxxxxxxxxxxxxxxxxxxxxxx----|
A|-8--8---8-8---8--8--8--8--8--8--8--8-10-8--4-6------|
E|----------------------------------------------------|


e|---------------------------------------------------------|
B|---------------------------------------------------------|
G|-10-10-10-10-10-10-10-10-10-10-10-10-10-10-10-10---------|
D|-xxxxxxxxxxxxxxxxxxxxxxxxxxxxxxxxxxxxxxxxxxxxxxxxxxxx----|       
A|-8--8--8---8-8---8--8--8--8--8--8--8-8---8--8--8---------|
E|---------------------------------------------------------|

e|----------------------------------------------------|
B|----------------------------------------------------|
G|--10-10-10-10-12-10-6-8-----------------------------|   <-- X2
D|--xxxxxxxxxxxxxxxxxxxxx-----------------------------|     
A|--8---8--8--8-10--8-4-6-----------------------------|
E|----------------------------------------------------|

e|------------------------------------------------|
B|------------------------------------------------|
G|-10-10-10-10-10-10-10-10-8-8-8-8-8-8-8-8--------|
D|-xxxxxxxxxxxxxxxxxxxxxxxxxxxxxxxxxxxxxxx--------|
A|-8--8---8--8--8--8--8--8-6-6-6-6-6-6-6-6--------|
E|------------------------------------------------|

Chorus:X4
e|------------------------------------------------|
B|------------------------------------------------|
G|-6666-------------------------------------------|
D|-6666-6666-8888-6666----------------------------|
A|-4444-6666-8888-6666----------------------------|
E|------4444-6666-4444----------------------------|

Outro:
e|----------------------------------------------|
B|----------------------------------------------|
G|-6666-6666-66---------------------------------|
D|-6666-6666-66-6-8-----------------------------|
A|-4444-4444-44-6-8-----------------------------|
E|--------------4-6-----------------------------|


************************************

| /   slide up
| \   slide down
| h   hammer-on
| p   pull-off
| ~   vibrato
| +   harmonic
| x   Mute note
| b   Bend
| pb  Pre-bend
| br  Bend release
| pbr Pre-bend release
| brb Bend release bend

************************************
Добавлено: 26.09.2013
Другие материалы по этой песне:
  • Аккорды и текст

Страница создана 09.04.2012
http://primanota.ru/skumdum/vad-jag-undrar-chords.htm
Привет, Гость.
Предлагаем пройти революционный курс по гитаре.
Подарок от PrimaNota.Ru, забирай!