PrimaNota.ru - самый крупный в мире бесплатный архив песенных текстов, аккордов, табулатур и нот


Skull Fist - Ride On - таба, видео

Регистрация Запомнить меня
Войти через:  Facebook Google Twitter Vk Yandex Mail.ru

Skull Fist - Ride On - таба, видео

Печатать
Просмотров: 43
Tuning: D

INTRO:

Part 1

d|---------0--------------0---------|
A|-------0---0----------0---0-------|
F|-----5------5-------5-------5-----|
C|---7----------7---7-----------7---|
G|-0--------------8-----------------|
D|----------------------------------|


d|-----------0-----------------------|
A|-------3-----3---------------------|
F|-----4---4-----4-------------------|
C|---5-------------5-----------------|
G|-----------------------------------|
D|-----------------------------------|

Part 2

d|---------0--------------0---------|
A|-------0---0----------0---0-------|
F|-----5------5-------5-------5-----|
C|---7----------7---7-----------7---|
G|-0--------------8-----------------|
D|----------------------------------|



d|----------0-----3-----------------|
A|-------3----3---3-----------------|
F|-----4---4----4-4-----------------|
C|---5------------5-----------------|
G|----------------------------------|
D|----------------------------------|

Repeat part 1, then play it:


d|-----------0--------------------------|
A|-------1-----1------------1-------1---|
F|-----2---2-----2--------0-------0-----|
C|---3------------------2-------0-------|
G|--------------------3-------2---------|
D|--------------------------------------|


d|---------0----------0-------------|
A|-------0---0--------0-------------|
F|-----5-------5------5-------------|
C|---2-----------2----2-------------|
G|-0------------------0-------------|
D|----------------------------------|



I don't know the whole song, so I made the Intro tab only

RIDE ON AND ON AND ON, MAN!

Добавлено: 03.05.2016
Другие материалы по этой песне:
  • Аккорды и текст

Страница создана 03.05.2016
http://primanota.ru/skull-fist/ride-on-chords.htm
Привет, Гость.
Предлагаем пройти революционный курс по гитаре.
Подарок от PrimaNota.Ru, забирай!