PrimaNota.ru - самый крупный в мире бесплатный архив песенных текстов, аккордов, табулатур и нот


Skull Fist - Head Of The Pack - таба, видео

Регистрация Запомнить меня
Войти через:  Facebook Google Twitter Vk Yandex Mail.ru

Skull Fist - Head Of The Pack - таба, видео

Печатать
Просмотров: 29
-------------------------------------------------------------------------------
                             HEAD OF THE PACK - Skull Fist
-------------------------------------------------------------------------------
Tabbed by: David Kuri

Here are all the parts you're gonna need. Have fun shredding and
check out my band Booze Control, I heard they kick ass. ~David

KEY:    F# minor
TUNING: D G C F A D


INTRO:

                      |--3--|                            |--3--|        |--3--|  
------------------------------|--16----14----12---11-12-14-12-11----------------|
---------------------------16-|----------------------------------14-12-14-12-11-|
------------------------13----|-------------------------------------------------|
---------------------13-------|-------------------------------------------------|
------------------14----------|-------------------------------------------------|
---------------16-------------|-------------------------------------------------|

         |--3-|        |--3-|        |--3-|        |--3-|    |--3-|     |-3-|     |-3-|     |-3-|      
----------------------------------------------------------|-------------------------------------------|
----------------------------------------------------------|-------------------------------------------|
--13-11-13-11-9-------------------------------------------|-------------------------------------------|
----------------13-11-13-11-9-----------------------------|-------------------------------------------|
------------------------------13-11-13-11-9---------------|---------6-7-9-7-6-----------4-6-7-6-4-----|
--------------------------------------------12-11-12-11-9-|--7-9-11-----------9~--4-6-7-----------7-2-|


MAIN RIFF:

       PM PM PM PM PM PM PM PM PM PM PM PM    PM PM PM PM PM PM PM PM PM PM PM PM PM PM PM PM  
-------------------------------------------|--------------------------------------------------|
-------------------------------------------|--------------------------------------------------|
-------------------------------------------|--------------------------------------------------|
-------------------------------------------|--------------------------------------------------|
--6----------------------------------------|-----------------------------4--------------------|
--4----4--4--4--4--4--4--4--4--4--4--4--4--|--7--4--4--6--4--4--7--4--7-----4--4--7--4--6--4--|

       PM PM PM PM PM PM PM PM PM PM PM PM    PM  PM PM PM PM PM PM PM PM PM PM PM PM PM PM PM  
-------------------------------------------|---------------------------------------------------|
-------------------------------------------|---------------------------------------------------|
-------------------------------------------|---------------------------------------------------|
-------------------------------------------|---------------------------------------------------|
--6----------------------------------------|---------------------------------------------------|
--4----4--4--4--4--4--4--4--4--4--4--4--4--|--9h-11-11-11-11p-9--9--9--9p-7--7--7--7p-6--6--6--|


VERSE RIFF:

       PM PM PM PM PM PM PM PM PM PM PM PM        PM PM PM PM PM PM     PM PM PM PM PM PM                       
-------------------------------------------|----------------------------------------------|--------------------|
-------------------------------------------|----------------------------------------------|--------------------|
-------------------------------------------|----------------------------------------------|--------------------|
-------------------------------------------|-----------------------11---------------------|--13---11---13--\---|
--6----------------------------------------|--9---------------------9---9--9--9--9--9--9--|--11----9---11--\---|
--4----4--4--4--4--4--4--4--4--4--4--4--4--|--7---7--7--7--7--7--7------------------------|--------------------|


VERSE LICK A:

Jackie:       |---3---|         |---3---|         |---3---|                
---19h-21-|--23p-21p-19---------------------------------------------------|
----------|-------------23p-21-23p-21p-19---------------------------------|
----------|-------------------------------21p-20-21p-20p-18---------------|
----------|-------------------------------------------------21p-20-18~----|
----------|---------------------------------------------------------------|
----------|---------------------------------------------------------------|


Jonny:        |---3---|         |---3---|         |---3--|               
---11h-12-|--14p-12p-11---------------------------------------------------|
----------|-------------14p-12-14p-12p-11---------------------------------|
----------|-------------------------------13p-11-13p-11p-9----------------|
----------|-------------------------------------------------13p-11-9~-----|
----------|---------------------------------------------------------------|
----------|---------------------------------------------------------------|


VERSE LICK B:

Both guitars:
---12h-14-|--16p-14p-12---------------------------------------|
----------|-------------16-16p-14p-12-12-12h-14p-12-----------|
----------|-----------------------------------------15-13~----|
----------|---------------------------------------------------|
----------|---------------------------------------------------|
----------|---------------------------------------------------|


VERSE LICK C:

Jackie:
----------------------------------------------------|
----------------------------------------------------|
--13h-16-16-16-16p-15-13~--13h-16-16-16-16p-15-13~--|
----------------------------------------------------|
----------------------------------------------------|
----------------------------------------------------|

Jonny:
----------------------------------------------------|
--12h-16-16-16-16p-14-12~--12h-16-16-16-16p-14-12~--|
----------------------------------------------------|
----------------------------------------------------|
----------------------------------------------------|
----------------------------------------------------|


BRIDGE:

      PM PM     PM PM     PM PM     PM PM          PM               
------------------------------------------|------------------------|
------------------------------------------|--12--------------------|
--11--------11--------11--------11--------|--11-------11-----------|
--11--------11--------11--------11--------|---9-------11-----------|
---9--9--9---9--9--9---9--9--9---9--9--9--|--------9---9-----------|
------------------------------------------|------------------------|

   PM  PM PM  PM PM PM PM  PM PM  PM PM PM    PM  PM PM  PM PM PM PM  PM PM  PM PM PM 
------------------------------------------|------------------------------------------|
------------------------------------------|------------------------------------------|
------------------------------------------|------------------------------------------|
--13--13-13-----------13--13-13-----------|--13--13-13-----------13--13-13-----------|
--11--11-11--11-11-11-11--11-11--11-11-11-|--11--11-11--11-11-11-11--11-11--11-11-11-|
------------------------------------------|------------------------------------------|

      PM PM     PM PM     PM PM     PM PM          PM               
------------------------------------------|------------------------|
------------------------------------------|--12--------------------|
--11--------11--------11--------11--------|--11-------11-----------|
--11--------11--------11--------11--------|---9-------11-----------|
---9--9--9---9--9--9---9--9--9---9--9--9--|--------9---9-----------|
------------------------------------------|------------------------|

      PM PM     PM PM     PM PM     PM PM         PM   PM         PM    PM    
                                             |----3----|     |-----3----|     
------------------------------------------|----------------------------------|----------------|
------------------------------------------|----------------------------------|----------------|
--11--------11--------11--------11--------|--9--------------11---------------|--13--\---------|
--11--------11--------11--------11--------|--9---------9----11---------11----|--13--\---------|
---9--9--9---9--9--9---9--9--9---9--9--9--|--7----7----7-----9----9-----9----|--11--\---------|
------------------------------------------|-------7---------------9----------|----------------|


BRIDGE LICK:

   |-------5-------|   |-------5-------|  |-------5-------|   |-------5-------| 
--11h-16p-11h-16p-11h-16p-11h-16p-11h-16-12h-16p-12h-16p-12h-16p-12h-16p-12h-16-|
--------------------------------------------------------------------------------|
--------------------------------------------------------------------------------|
--------------------------------------------------------------------------------|
--------------------------------------------------------------------------------|
--------------------------------------------------------------------------------|


   |-------5-------|   |-------5-------|  |-------5-------|   |-------5-------| 
--14h-19p-14h-19p-14h-19p-14h-19p-14h-19-14h-18p-14h-18p-14h-18p-14h-18p-14h-18-|
--------------------------------------------------------------------------------|
--------------------------------------------------------------------------------|
--------------------------------------------------------------------------------|
--------------------------------------------------------------------------------|
--------------------------------------------------------------------------------|


CHORUS:

Jackie:  
------------|------------|------------|------------|
------------|------------|------------|------------|
--13--------|------------|--9---------|--11--------|
--13--------|------------|--9---------|--11--------|
--11--------|------------|--7---------|---9--------|
------------|------------|------------|------------|

Jonny:
--------------------------|------------------------|
--------------------------|------------------------|
-------8--6~--------------|------6-----------------|
--6------------------6h-8-|--9-------9--8----------|
--------------------------|------------------9~----|
--------------------------|------------------------|


SOLO BACKING:

       PM PM  PM PM PM PM  PM PM  PM PM PM        PM PM  PM PM PM     PM PM        
------------------------------------------|---------------------------------------|
------------------------------------------|---------------------------------------|
------------------------------------------|---------------------------------------|
--13--------------------------------------|--13------------------13--------14~----|
--11--11-11--11-11-11-11--11-11--11-11-11-|--11--11-11--11-11-11-11--11-11-11~----|
------------------------------------------|---------------------------------------|

      PM PM PM PM PM PM PM PM PM PM PM       PM PM PM PM PM    PM PM PM PM PM  
---------------------------------------|--------------------------------------|
---------------------------------------|--------------------------------------|
---------------------------------------|--------------------------------------|
--11-----------------------------------|--9-----------------8-----------------|
---9--9--9--9--9--9--9--9--9--9--9--9--|--9--9--9--9--9--9--9--9--9--9--9--9--|
---------------------------------------|--------------------------------------|

After the 1st solo, start playing straight 16th notes and play a full step higher (G#).
After the 2nd solo, keep the 16th notes and go back to original position (F#).


SOLO 1 (JONNY NESTA):

------------------------------|-------------------|-------------------------|------------------19b~------|
------------------------------|-------------------|-------------------------|--19br-----16---------------|
--13-s--15--15--15-s--16--16--|--16~-\------------|--14b-----13----13s--16--|--------------18------------|
------------------------------|-----------------x-|-------------16----------|----------------------------|
--11-s--13--13--13-s--14--14--|--14~-\---------x--|-------------------------|----------------------------|
------------------------------|-------------------|-------------------------|----------------------------|

--21b---------|--19----18----19---18h-19p-18-----------|-------------------------------|
--------------|------------------------------21-19-----|--19b------16~------16---16-17-|
--------------|----------------------------------------|-------------------------------|
--------------|----------------------------------------|-------------------------------|
--------------|----------------------------------------|-------------------------------|
--------------|----------------------------------------|-------------------------------|

   |---3---|         |---3---|         |---3---|         |--3--|          PM
-----------------------------------------------------------------------|-----------------------|
--19p-17p-16-----------------------------------------------------------|-------17---16~--------|
-------------18p-16-18p-16p-15-----------------------------------------|-----------------------|
-------------------------------18p-16-18p-16p-14-----------------------|-----------------------|
-------------------------------------------------18p-16-18-16-14-------|-----------------------|
-----------------------------------------------------------------18-16-|--16-------------------|


SOLO 2 (JACKIE SLAUGHTER):

---------------------9--|--8-----------------|---------------------------|----------------------------13-|
--------------9--11-----|-----11---9--9~-----|--14b-----13-14~--------9--|--13---9-------11b~------14----|
----------10------------|--------------------|---------------------10----|-----------10------------------|
--8h--11----------------|--------------------|---------------------------|-------------------------------|
------------------------|--------------------|---------------------------|-------------------------------|
------------------------|--------------------|---------------------------|-------------------------------|

--18p-13-14p-13----13-------------------------------13-|--18p-13-14p-13----13----------------------------|
----------------16----16p-14-14h-16p-14p-13------14----|----------------16----16p-14-14h-16p-14p-13------|
--------------------------------------------15~--------|--------------------------------------------15~--|
-------------------------------------------------------|-------------------------------------------------|
-------------------------------------------------------|-------------------------------------------------|
-------------------------------------------------------|-------------------------------------------------|

                 |---3---|   |---3---|   |---3--|   |---3---|       
--16b----16p-14-16p-14p-13h-16p-14p-13h-14p-13---------------------|
-----------------------------------------------16p-14h-16p-14-13~--|
-------------------------------------------------------------------|
-------------------------------------------------------------------|
-------------------------------------------------------------------|
-------------------------------------------------------------------|

-------------------------------------------------------------|-------------|
-------------------------------------------------------------|-------------|
--15p-13p-11h-13p-11----11-----------------------------------|-------------|
---------------------15----15p-13h-15p-13p-11h-13p-11--------|-------------|
------------------------------------------------------15p-13-|--11~--------|
-------------------------------------------------------------|-------------|


FINAL CHORUS:

Both guitars play Jonny's LICK A once, then once a half step higher.
The chorus is shifted up a full step (G#). Drop the chords and add a harmony to the chorus melody:

----------------------------|----------------------------|
----------------------------|----------------------------|
-------10--8~---------------|-------8--------------------|
--8-------------------8h-10-|--11-------11--10-----------|
----------------------------|---------------------11~----|
----------------------------|----------------------------|

----------------------------|----------------------------|
----------------------------|----------------------------|
----------------------------|-------8--------------------|
-------11--10~--------8h-10-|--11-------11--10-----------|
--9-------------------------|---------------------11~----|
----------------------------|----------------------------|


ENDING:
End on the VERSE RIFF shifted up by a full step (G#).
Добавлено: 03.05.2016
Вам также может быть интересно:
Другие материалы по этой песне:

Страница создана 12.10.2013
http://primanota.ru/skull-fist/head-of-the-pack-chords.htm
Привет, Гость.
Предлагаем пройти революционный курс по гитаре.
Подарок от PrimaNota.Ru, забирай!