PrimaNota.ru - самый крупный в мире бесплатный архив песенных текстов, аккордов, табулатур и нот


Skip The Use - Give Me Your Life - таба, видео

Регистрация Запомнить меня
Войти через:  Facebook Google Twitter Vk Yandex Mail.ru

Skip The Use - Give Me Your Life - таба, видео

Печатать
Просмотров: 82
Skip The Use - Give Me Your Life (Version de Can Be Late)


Intro


E |----------|----------|----------|----------|
B |----------|----------|----------|----------|
G |----------|----------|----------|----------|
D |----------|----------|----------|----------|
A |--8--6----|--4--3----|--8--10---|--11-13---|
E |--6--4----|--2--1----|--6--8----|--9--11---|


Couplet 1


-----------6----------------|      -----------9----------------|
-----------6----------------|      -----------10---------------|
-----------6----------------|  x4  -----------11---------------|
----------------------------|      ----------------------------|
----------------------------|      ----------------------------|
----------------------------|      ----------------------------|


-----------6----------------|
-----------6----------------|
-----------6----------------|  x3
----------------------------|
----------------------------|
----------------------------|

--------------------6------------------------------|
--------------------6------------------------------|
--------------------6---------6--6--x--6--x--x--6--|  x4
------------------------------8--8--x--8--x--x--8--|
------------------------------8--8--x--8--x--x--8--|
---------------------------------------------------|


--------------------9------------------------------|
--------------------10-----------------------------|
--------------------11--------6--6--x--6--x--x--6--| 
------------------------------8--8--x--8--x--x--8--|
------------------------------8--8--x--8--x--x--8--|
---------------------------------------------------|


--------------------6------------------------------|
--------------------6------------------------------|
--------------------6---------6--6--x--6--x--x--6--|  x3
------------------------------8--8--x--8--x--x--8--|
------------------------------8--8--x--8--x--x--8--|
---------------------------------------------------|


Refrain


--8-------------------------|----------------------------||
-----------8----------------|----------------------------||
--------6-----6-----8-------|-----------6-----6----------||  x8
----------------------------|-----6--8-------------------||
----------------------------|--8-------------------------||
----------------------------|----------------------------||


Pont


Couplet 2


--------------------6------------------------------|
--------------------6------------------------------|
--------------------6---------6--6--x--6--x--x--6--|  x4
------------------------------8--8--x--8--x--x--8--|
------------------------------8--8--x--8--x--x--8--|
---------------------------------------------------|


--------------------9------------------------------|
--------------------10-----------------------------|
--------------------11--------6--6--x--6--x--x--6--| 
------------------------------8--8--x--8--x--x--8--|
------------------------------8--8--x--8--x--x--8--|
---------------------------------------------------|


--------------------6------------------------------|
--------------------6------------------------------|
--------------------6---------6--6--x--6--x--x--6--|  x3
------------------------------8--8--x--8--x--x--8--|
------------------------------8--8--x--8--x--x--8--|
---------------------------------------------------|

Le tout x2


Solo


----------|----------|----------|----------|
----------|----------|----------|----------|
----------|----------|----------|----------|
--8--6----|--4--3----|--8--10---|--11-13---|
--6--4----|--2--1----|--6--8----|--9--11---|


--6--6--6--6--6--6--6--6--6--6--6--6--6--6--6--6----|
--6--6--6--6--6--6--6--6--6--6--6--6--6--6--6--6----|
--6--6--6--6--6--6--6--6--6--6--6--6--6--6--6--6----|
----------------------------------------------------|
----------------------------------------------------|
----------------------------------------------------|


--6-----6--x--x--6--x--x--6-----6--x--x--6--x--x----|
--6-----6--x--x--6--x--x--6-----6--x--x--6--x--x----|
--6-----6--x--x--6--x--x--6-----6--x--x--6--x--x----|
----------------------------------------------------|
----------------------------------------------------|
----------------------------------------------------|


--6--6--6--6--6--6--6--6--6--6--6--6--6--6--6--6----|
--6--6--6--6--6--6--6--6--6--6--6--6--6--6--6--6----|
--6--6--6--6--6--6--6--6--6--6--6--6--6--6--6--6----|
----------------------------------------------------|
----------------------------------------------------|
----------------------------------------------------|


--6-----6--x--x--6--x--x--6-----6--x--x--6--x--x----|
--6-----6--x--x--6--x--x--6-----6--x--x--6--x--x----|
--6-----6--x--x--6--x--x--6-----6--x--x--6--x--x----|
----------------------------------------------------|
----------------------------------------------------|
----------------------------------------------------|


----------------------------|--8-------------------------|
--6--------6--------6-------|--8--6-----6-----6----------|
--8b-------8b-------8b------|-----8b----8b----8b/r-------|
----------------------------|----------------------------|
----------------------------|----------------------------|
----------------------------|----------------------------|


--6--6--6--6--6--6--6--6--6--6--6--6--6--6--6--6----|
--6--6--6--6--6--6--6--6--6--6--6--6--6--6--6--6----|
--6--6--6--6--6--6--6--6--6--6--6--6--6--6--6--6----|
----------------------------------------------------|
----------------------------------------------------|
----------------------------------------------------|


--6-----6--x--x--6--x--x--6-----6--x--x--6--x--x----||
--6-----6--x--x--6--x--x--6-----6--x--x--6--x--x----||
--6-----6--x--x--6--x--x--6-----6--x--x--6--x--x----||
----------------------------------------------------||
----------------------------------------------------||
----------------------------------------------------||

Pour que le solo sonne correctement il faut impérativement écouter attentivement 
le gratté de Yann Stefani sur son solo !


Refrain


Legend
L - tied note
x - dead note
h - hammer on/pull off
b - bend
b/r - bend/release
s - slide
~ - vibrato
g - ghost note
> - accentuated note
t - trill
M - palm mute
. - staccato
P - popping (bass)
S - slapping (bass)
+ - tapping
W - wide vibrato
< - fade in
w - whammy bar
= - tremolo picking
v - brush up
^ - brush down
V - pick stroke up
n - pick stroke down
Добавлено: 07.10.2013
Другие материалы по этой песне:
  • Аккорды и текст

Страница создана 07.10.2013
http://primanota.ru/skip-the-use/give-me-your-life-chords.htm
Привет, Гость.
Предлагаем пройти революционный курс по гитаре.
Подарок от PrimaNota.Ru, забирай!