PrimaNota.ru - самый крупный в мире бесплатный архив песенных текстов, аккордов, табулатур и нот


Skip James - Hard Time Killin Floor Blues - таба, видео

Регистрация Запомнить меня
Войти через:  Facebook Google Twitter Vk Yandex Mail.ru

Skip James - Hard Time Killin Floor Blues - таба, видео

Печатать
Просмотров: 152
Saw this tab on youtube here: http://www.youtube.com/watch?v=wm5uCFDYidA

All credit goes to Robinhlm, Great video (closest tab I've seen online). I found it hard 
to read the tab onscreen so here it is:

Intro

D|---------------------------------------------------------------------------|
A|--------------------------3------------------------------------------------|
F|---------------------------------------------------------------------------|
D|----b3--0--2--0--------0--------0------------------------------------------|
A|-----------------3--0------------------------------------------------------|
D|--------------------------0-----------0------------------------------------|

Verse

D|---------------0-----------0-----------0-----------0-----------------------|
A|---------------------------------------------------------------------------|
F|------------------------------2-----------2--------------------------------|
D|--------0--b3-----0--2-----------0--3--------0-----------------------------|
A|--0--3------------------3--------------------------------------------------|
D|------------------------------------------------0--------------------------|

D|-----------------0------------------0----------0---------------------------|
A|--------------0------------------0-----------------------------------------|
F|-----------------------------------------------------2p1---------/4p2------|
D|--------------------------------------------0-----0-----------0-------0----|
A|--------0--3--------0--3--0------------0h3---------------------------------|
D|--0--3------------------------5----------------3----------0----------------|

D|-0----------------------------------------0-----0-----0--0--0--------------|
A|------------------------------0--0--2--3-----3-----3-----3--3--------------|
F|-------2p1--------/4p2-----------------------------------------------------|
D|----0----------0--------0-----------------------0--------------------------|
A|------------0--------------0-----------------------------------------------|
D|-3----------------------------------------0--------------0-----------------|

Alternative Verse ending
D|------------------------------------------------0--------------------------|
A|---------------------------------------------------------------------------|
F|--------------------------------------------------------2p1--------/4p2----|
D|----------------------------------------------------0-----------0--------0-|
A|---------------------------------------------------------------------------|
D|------------------------------------------------3------------0-------------|

D|---------------------------------------------------------------------------|
A|-----0------0------0-----0-----0-----0-------------------------------------|
F|--------2-------------2-----------2-----------/4p2-------------------------|
D|--------0-------------0-----------0--------0--------0----------------------|
A|----------------0-----------------------0----------------------------------|
D|--3-------------------------3----------------------------------------------|

D|--------------------------------0------------------------------------------|
A|------0------0-------------------------------------------------------------|
F|----------2------------/4p2-----------2p1----------------------------------|
D|----------0---------0--------0-----0---------------------------------------|
A|-----------------0---------------------------------------------------------|
D|--3-----------------------------3----------0-------------------------------|

Instrumental part
D|---------------0-----------------0-----------------------------0------------|
A|------------------------------0---------------------------------------------|
F|----------------------------------------------------------------------------|
D|--------0--b3-----0--2--0------------------0--b3--2------0------------------|
A|--0--3---------------------3---------0--3------------b3---------------------|
D|------------------------------------------------------------0---------------|

D|-----------------0-----------------0----------0----------------------------|
A|--------------0-----------------0------------------------------------------|
F|----------------------------------------------------2p1--------/4h2--------|
D|-------------------------------------------0-----0----------0--------0-----|
A|--------0--3--------0--3--0-----------0h3----------------------------------|
D|--0--3-----------------------5----------------3----------0-----------------|

D|---------------------------------------------------------------------------|
A|-----0-----0--------------------0-----0------------------------------------|
F|--------2-----------/4p2-----------2------------/4p2-----------------------|
D|--------0--------0--------0--------0---------0--------0--------------------|
A|--------------0---------------------------0--------------------------------|
D|--3--------------------------3---------------------------------------------|

D|-----------------------------0---------------------------------------------|
A|-----0-----0---------------------------------------------------------------|
F|--------2-----------/4p2-----------2p1-------------------------------------|
D|--------0--------0--------0-----0------------------------------------------|
A|--------------0------------------------------------------------------------|
D|--3--------------------------3----------0----------------------------------|

Play next verse the same as previous but with instrumental ending

D|--0--0--2--3--4--2p0-------------------0--0--3p2p0-----0-------------------|
A|----------------------2--0-----2--0h2---------------2----------------------|
F|--1--1--2--3---------------------------------------------------------------|
D|-------------------------------------------------------------0-------------|
A|---------------------------------------------------------------------------|
D|------------------------------------------0--------------------------------|
Добавлено: 08.06.2013
Другие материалы по этой песне:
  • Аккорды и текст

Страница создана 08.06.2013
http://primanota.ru/skip-james/hard-time-killin-floor-blues-chords.htm
Привет, Гость.
Предлагаем пройти революционный курс по гитаре.
Подарок от PrimaNota.Ru, забирай!