PrimaNota.ru - самый крупный в мире бесплатный архив песенных текстов, аккордов, табулатур и нот


Skinless - An Unilateral Disgust - таба, видео

Регистрация Запомнить меня
Войти через:  Facebook Google Twitter Vk Yandex Mail.ru

Skinless - An Unilateral Disgust - таба, видео

Печатать
Просмотров: 176
   0:03
b |---------------------------------|
f#|---------------------------------|
d |---------------------------------|
a |---------------------------------|
e |-8\7-7-7-7-7-10\\\\7-7-7-7-8-7-5-|
B |-6\5-5-5-5-5-8-\\\\5-5-5-5-6-5-3-|
        . . . .       . . . . . . .

   0:03 (continued)
b |------------------------------------|
f#|------------------------------------|
d |------------------------------------|
a |------------------------------------|
e |-8\7-7-7-7-7-10\\\\---5\\---666666--|
B |-6\5-5-5-5-5-8-\\\\3/5---3/5--------|
        . . . .

   0:15
b |------------------------------------------------------------|
f#|------------------------------------------------------------|
d |------------------------------------------------------------|
a |---------------------------------8-----7--------------------|
e |-8\7-7-7-7-7-7-7-5/7-7-7-7-7-7-7-6-----5--------------------|
B |-6\5-5-5-5-5-5-5-3/5-5-5-5-5-5-5-6-----5-----0-3-5--5h7p5\3-|
        . . . . . .     . . . . . .

   0:21
b |---------------------------------------------------------------|
f#|---------------------------------------------------------------|
d |---------------------------------------------------------------|
a |---------------------------------8-----10----10-10-7--7----8-7-|
e |-8\7-7-7-7-7-7-7-5/7-7-7-7-7-7-7-6-----8-----8--8--5--5--5-6-5-|
B |-6\5-5-5-5-5-5-5-3/5-5-5-5-5-5-5-6---5-8-----8--8--5--5----6-5-|
        . . . . . .     . . . . . .     .

   0:28
b |-----------------------------------------------------------|
f#|-----------------------------------------------------------|
d |-----------------------------------------------------------|
a |-------------------------10--8\\---------------------------|
e |-8\7-7---7-7-7-7-5/7-7-7-8---6\\\5---7---8---7---5---7---8-|
B |-6\5-5---5-5-5-5-3/5-5-5-8-5-6\\\3---5---6---5---3---5---6-|
        .   . . . .       .   .     .   .   .   .   .   .   .
   0:35
b |-----------------------------------------------------------|
f#|-----------------------------------------------------------|
d |-----------------------------------------------------------|
a |-------------------------8---10\---------------------------|
e |-8\7-7---7-7-7-7-5/7-7-7-6---8\\\5---7---8---7---5---7---8-|
B |-6\5-5---5-5-5-5-3/5-5-5-6-5-8\\\3---5---6---5---3---5---6-|
        .   . . . .       .   .     .   .   .   .   .   .   .
                                       Page 1
                        Skinless - A Unilateral Disgust.txt
   1:06
b |----------------------------------------|
f#|----------------------------------------|
d |----------------------------------------|
a |-------------------------------------8--|
e |-8-7-7---8-7-7---8-7-7---8-7-7---7---6--|
B |-6-5-5---6-5-5---6-5-5---6-5-5---5-5-6--|
    . .     . .     . .     . .       .

   1:10
b |-------------------------------------------------|
f#|-------------------------------------------------|
d |-------------------------------------------------|
a |-------------------------------------------------|
e |-3--3--3--3--4--4--4--4--3--3--3--3--4--4--4--4--|
B |-1--1--1--1--2--2--2--2--1--1--1--1--2--2--2--2--|


   1:10 (continued)
b |-----------------------------------------------------------------|
f#|-----------------------------------------------------------------|
d |-----------------------------------------------------------------|
a |-2h5p2p0-3h6p3p0-5h8p5p0-6h9p6p0-2h5p2p0-3h6p3p0-5h8p5p0-6h9p6p0-|
e |-----------------------------------------------------------------|
B |-----------------------------------------------------------------|


   1:16
b |-------------------------------------------------|
f#|-------------------------------------------------|
d |-------------------------------------------------|
a |-------------------------------------------------|
e |-3--3--3--3--4--4--4--4--3--3--3--3--4--4--4--4--|
B |-1--1--1--1--2--2--2--2--1--1--1--1--2--2--2--2--|

   1:16 (continued)
b |-----------------------------------------------------------------|
f#|-----------------------------------------------------------------|
d |-----------------------------------------------------------------|
a |-9-6-0-0-5-8-0-0-6-3-0-0-5-2-0-0-9-6-0-0-5-8-0-0-6-3-0-0-5-2-0-0-|
e |-----------------------------------------------------------------|
B |-----------------------------------------------------------------|
    . . . . . . . . . . . . . . . . . . . . . . . . . . . . . . . .
   1:38
b |---------------| |-----------------|
f#|---------------| |-----------------|
d |---------------| |-----------------|
a |--------(2^)---|x3|----------------|   (pinch harmonics)
e |-1h4p1p0---1p0-| |-2h5p2--3h6p3----|
B |---------------| |-----------------|
              . .
   1:38 (continued)
b |---------------| |----------------------------------------|
f#|---------------| |----------------------------------------|
d |---------------| |----------------------------------------|
a |--------(2^)---|x3|-2h5p2p0-3h6p3p0-5h8p5p0-6h9p6p0-------|     (pinch harmonics)
e |-1h4p1p0---1p0-| |----------------------------------------|
B |---------------| |----------------------------------------|
              . .
                                       Page 2
                        Skinless - A Unilateral Disgust.txt
   1:51
b |------------------------------------|
f#|------------------------------------|
d |------------------------------------|
a |-9--6--0--5--8--0--6--3--0--5--2--0-|
e |------------------------------------|
B |------------------------------------|

   1:51 (continued)
b |--------------------------------------------------------------------|
f#|--------------------------------------------------------------------|
d |--------------------------------------------------------------------|
a |-2h5p2p0-3h6p3p0-5h8p5p0-6h9p6p0-9--6--0--5--8--0--6--3--0--5--2--0-|
e |--------------------------------------------------------------------|
B |--------------------------------------------------------------------|


   1:54
b |-------------------------------------------------|
f#|-------------------------------------------------|
d |-------------------------------------------------|
a |-------------------------------------------------|
e |-1h4p1---3--2--3--2--3--1h4p1-2--3--2h5p2--3h6p3-|
B |-------1-1--0--1--0--1--------0--1---------------|
          .    . . . .           . .

   1:54 (continued)
b |--------------------------------------------------------|
f#|--------------------------------------------------------|
d |--------------------------------------------------------|
a |--------------------------------------------------------|
e |-1h4p1---3--2--3--2--3--2h5p2p0-3h6p3p0-5h8p5p0-6h9p6p0-|
B |-------1-1--0--1--0--1----------------------------------|
          .    . . . .

   2:07
b |---------------------------------|
f#|---------------------------------|
d |---------------------------------|
a |-9-6-0-0-5-8-0-0-6-3-0-0-5-2-0-0-|
e |---------------------------------|
B |---------------------------------|
    . . . . . . . . . . . . . . . .
   2:12
b |-----------------------------------------------------------------|
f#|-----------------------------------------------------------------|
d |-----------------------------------------------------------------|
a |-9-6-0---5-8-0---6-3-0---5-2-0---9-6-0---5-8-0---6-3-0---5-2-0---|
e |-----------------------------------------------------------------|
B |-----------------------------------------------------------------|
    . . .   . . .   . . .   . . .   . . .   . . .   . . .   . . .
   2:13
b |------------------------------------------------|
f#|------------------------------------------------|
d |------------------------------------------------|
a |----------5--4--3-----------5--4--3-------------|
e |-2--3--4--3--2--1--2--3--4--3--2--1--2--3--4--3-|
B |-0--1--2-----------0--1--2-----------0--1--2--1-|
    . . .             . . .             . . . .
                                       Page 3
                         Skinless - A Unilateral Disgust.txt
   2:13 (conitnued)
b |-------------------------------------------------|
f#|-------------------------------------------------|
d |-------------------------------------------------|
a |----------5--4--3--------8--7--------10-9--------|
e |-2--3--4--3--2--1--2--3--6--5--8--7--8--7--10-9--|
B |-0--1--2-----------0--1--------6--5--------8--7--|
    . . .             . .

b |-------------------------------------------------|
f#|-------------------------------------------------|
d |-------------------------------------------------|
a |-8--7--------10-9--------8--7--------10-9--------|
e |-6--5--8--7--8--7--10-9--6--5--8--7--8--7--10-9--|
B |-------6--5--------8--7--------6--5--------8--7--|
                            . . . . . . . .
   2:29
b |------------------|
f#|------------------|
d |------------------|
a |------------------|
e |----7-7-7-7-8-7-5-|   ...back to 0:15
B |----5-5-5-5-6-5-3-|
        . . . . . . .

   3:10 (same as 1:10, but with mutes)
b |-------------------------------------------------|
f#|-------------------------------------------------|
d |-------------------------------------------------|
a |-------------------------------------------------|
e |-3--3--3--3--4--4--4--4--3--3--3--3--4--4--4--4--|
B |-1--1--1--1--2--2--2--2--1--1--1--1--2--2--2--2--|
                . . . .                 . . . .
   3:10 (continued)
b |-----------------------------------------------------------------|
f#|-----------------------------------------------------------------|
d |-----------------------------------------------------------------|
a |-2h5p2p0-3h6p3p0-5h8p5p0-6h9p6p0-2h5p2p0-3h6p3p0-5h8p5p0-6h9p6p0-|
e |-----------------------------------------------------------------|
B |-----------------------------------------------------------------|

   3:16 (same as 1:16, but with mutes)
b |-------------------------------------------------|
f#|-------------------------------------------------|
d |-------------------------------------------------|
a |-------------------------------------------------|
e |-3--3--3--3--4--4--4--4--3--3--3--3--4--4--4--4--|
B |-1--1--1--1--2--2--2--2--1--1--1--1--2--2--2--2--|
                . . . .                 . . . .
   3:16 (continued)
b |-----------------------------------------------------------------|
f#|-----------------------------------------------------------------|
d |-----------------------------------------------------------------|
a |-9-6-0-0-5-8-0-0-6-3-0-0-5-2-0-0-9-6-0-0-5-8-0-0-6-3-0-0-5-2-0-0-|
e |-----------------------------------------------------------------|
B |-----------------------------------------------------------------|
    . . . . . . . . . . . . . . . . . . . . . . . . . . . . . . . .

                                          Page 4
                        Skinless - A Unilateral Disgust.txt
   3:22
b |---------------------------------------------------------------|
f#|---------------------------------------------------------------|
d |---------------------------------------------------------------|
a |-9-6-0-0-5-8-0-0-6-3-0-0-5-2-0-0-2h5p2p0-3h6p3p0-5h8p5p0-6-9---|
e |---------------------------------------------------------------|
B |---------------------------------------------------------------|
    . . . . . . . . . . . . . . . .
   3:29 (slower)
b |-----------------------------------|
f#|-----------------------------------|
d |-----------------------------------|
a |-2-2-3-2-2-6-2-3/5-2-2-3-2-2-6-2-5-|
e |-0-0-1-0-0-4-0-1/3-0-0-1-0-0-4-0-3-|
B |-----------------------------------|
    . .   . .   .     . .   . .   .
   3:29 (continued)
b |------------------------------------|
f#|------------------------------------|
d |------------------------------------|
a |-2-2-3-2-2-6-2-3/5-2-3-2-5-2-656-5--|
e |-0-0-1-0-0-4-0-1/3-0-1-0-3-0-434-3--|
B |------------------------------------|
    . .   . .   .     .   .   .

   3:45
b |----------------------------|
f#|----------------------------|
d |----------------------------|
a |---------------------656-5--|
e |-0-0-0h1-0-0-1h3-0-0-434-3--|
B |----------------------------|
    . .     . .     . .
   4:08 (after final 3:29)
b |-----------------------|
f#|-----------------------|
d |-----------------------|
a |-6-5---6-5---3------2--|
e |-4-3---4-3---1------0--|
B |-----------------------|


-END-
Добавлено: 31.07.2013
Другие материалы по этой песне:
  • Аккорды и текст

Страница создана 31.07.2013
http://primanota.ru/skinless/an-unilateral-disgust-chords.htm
Привет, Гость.
Предлагаем пройти революционный курс по гитаре.
Подарок от PrimaNota.Ru, забирай!