PrimaNota.ru - самый крупный в мире бесплатный архив песенных текстов, аккордов, табулатур и нот


Skindred - Warning - бас-таба, видео

Регистрация Запомнить меня
Войти через:  Facebook Google Twitter Vk Yandex Mail.ru

Skindred - Warning - бас-таба, видео

Печатать
Просмотров: 276
Hey Guys, this is my Tab to Skindred "Warning" feat. Jacoby from Papa Roach.
This song is easy learning. I play this song originally on a 5-string, but this should 
be the way, how to play it on the 4-string.

So have fun learning this song and don't forget to rate! ;)

Chorus Part 1
F|----------------|----------------|
C|----------------|------------3333|
G|----------------|--------4444----| 4x
C|4b1--1--4b1--1--|4b1--1----------|
  E E. E. E E. E.  E E. E. SSSSSSSS

Verse
F|----------------|----------------|
C|----------------|----------------|
G|----------------|----------------| 3x
C|13~~~~~~~~~~~13/|1-1~~~1~~\8-11~~|
  H.          Q    E Q   Q   E Q

F|----------------|----------------|
C|----------------|----------------|
G|----------------|----------------|
C|13~~~~~~~~~~~13/|4-4~~~4~~~3-3~~~|
  H.          Q    E Q   Q   E Q

Pause of ca. 8 seconds
Chorus Part 1 (4x)

Chorus Part 2
F|----------------|----------|
C|----------------|----------|
G|----------------|------4-4-| 4x then: short pause
C|----1~~~~~1~~~~~|1~~~~~----|
  Q   Q.    Q.     Q.    E E

Pre Verse
F|----------------|----------------|
C|----------------|----------------|
G|----------------|----------------| 2x
C|13~~~~~~~~~~~13/|1-1~~~1~~\8-11~~|
  H.          Q    E Q   Q   E Q

Verse
Chorus Part 1 (4x)
Chorus Part 2 (8x)

then:
F|----------------|----------------|
C|----------------|----------------|
G|2222222222222222|----------------|
C|----------------|6666666666664666|
  SSSSSSSSSSSSSSSS SSSSSSSSSSSSSSSS

Pause

Breakdown
F|----------------|----------------|
C|----------------|----------------|
G|----------------|--------00004444| 4x
C|13/~~~~\13/~~~~\|13/~~~~~--------|
  H       H        H       SSSSSSSS

Pause
Chorus Part 1 (6x)
Chorus Part 2 (2x)

Outro
F|----------------|----------|
C|----------------|----------|
G|----------------|------4-4-| 2x
C|----1~~~~~1~~~~~|1~~~~~----|
  Q   Q.    Q.     Q.    E E

F|----------------|----------|
C|----------------|----------|
G|----------------|------3-3-| 2x
C|----0~~~~~0~~~~~|0~~~~~----|
  Q   Q.    Q.     Q.    E E

F = Full note
H = Half note
Q = Quarter note
E = Eighth note
S = Sixteenth note
. = makes the note a half longer
\ = Slide up
/ = Slide down
h = Hammer-on
p = Pull-off
b = Bending
X = Mute note
Добавлено: 12.08.2013
Другие материалы по этой песне:

Страница создана 10.08.2013
http://primanota.ru/skindred/warning-chords.htm
Привет, Гость.
Предлагаем пройти революционный курс по гитаре.
Подарок от PrimaNota.Ru, забирай!