PrimaNota.ru - самый крупный в мире бесплатный архив песенных текстов, аккордов, табулатур и нот


Skindred - Under Attack - таба, видео

Регистрация Запомнить меня
Войти через:  Facebook Google Twitter Vk Yandex Mail.ru

Skindred - Under Attack - таба, видео

Печатать
Просмотров: 72
Уроки эстрадного вокала в Санкт-Петербурге
Skindred: Under Attack

Transcribed by: mysticguitar77

Facebook: https://www.facebook.com/MysticGuitar77
YouTube Channel: https://www.youtube.com/user/MysticGuitar77

Date last modified: September 13, 2015

Tuning: Drop C (C,G,C,F,A,D)

Intro
D|-----------------------|
A|-----------------------|
F|-----------------------|
C|-9---------------------| x3
G|-7---------------------|
C|---4--4--4---4-4h5-2h4-|

D|------------|
A|------------|
F|------------|
C|-9------11\-|
G|-7------9\--|
C|---4--4-----|

Riff 1
D|-----------------------|
A|-----------------------|
F|-----------------------|
C|-9---------------------|
G|-7---------------------|
C|---4--4--4---4-4h5-2h4-|
           ^ ends here final time

Play Riff 1 x8

Riff 2   "Now if you really want war you've got to be sick..."
D|----------------------------------------------|
A|-5--------------------------------------------|
F|----------------------------------------------|
C|---4-x-4--4-x-x-4h5-2h4--4-x-4--4-x-x-4h5-2h4-|
G|----------------------------------------------|
C|----------------------------------------------|

Play Riff 2 x4

Riff 2 ending
D|-------------0-|
A|-------------0-|
F|---------------|
C|-4-x-5-x-4-x---|
G|---------------|
C|---------------|

Riff 3   "Who's gonna help them, woah..."
D|------------------------------------|
A|------------------------------------|
F|------------------------------------|
C|-0------7---9---9\4-4-x-4-9\4-4-x-4-|
G|-0------7---9---9\4-4-x-4-9\4-4-x-4-|
C|-0------7---9---9\4-4-x-4-9\4-4-x-4-|
              ^ ends here final time

Play Riff 3 x4   "And now we realize we're under attack..."
Play Riff 1 x4
Play Riff 2 x4   "We have to stop them..."
                  (there's a rest halfway through the verse this time, listen to song for it)
Play Riff 3 x4   "Who's gonna help them, woah..."
Play Riff 1 x8

Riff 1 final time through this time:
D|---------------------------|
A|---------------------------|
F|---------------------------|
C|-9-------------------------|
G|-7-------------------------|
C|---4--4--4---4/14-14-14-14-|

Riff 4   "No, we don't want to..." (light distortion w/ heavy delay)
D|------------------------------0--------------------------------0----|
A|-7-(7)-(7)-(7)-(7)---------0------7-(7)-(7)-(7)-(7)---------0-----0-|
F|-6-(6)-(6)-(6)-(6)------2---------6-(6)-(6)-(6)-(6)------2----------|
C|-4-(4)-(4)-(4)-(4)---4------------4-(4)-(4)-(4)-(4)---4-------------|
G|--------------------------------------------------------------------|
C|--------------------------------------------------------------------|

Riff 5   "I believe we're all under attack..." (w/ talkbox)
D|-----------------------------------------------|
A|-----------------------------------------------|
F|-----------------------------------------------|
C|-----------------------------------------------|
G|-7---------------------------------------------|
C|---4-x-4--4---x-4h5-2h4---4-x-4--4---x-4h5-2h4-|

Play Riff 5 x4

Riff 5 ending
D|---------------------|
A|-------------8-8-8-8-|
F|-------------x-x-x-x-|
C|-------------5-5-5-5-|
G|---------------------|
C|-4-x-4--4--x---------|

Riff 6
D|-----------------------------------------------------------+-|
A|-----------------------------------------------------------+-|
F|-----------------------------------------------------------+-|
C|-4/5-4-4-4/5-4-4-4/5-4-4---\\--4/5-4-4-4/5-4-4-4/5-4-4-4/--+-|
G|-2/3-4-4-2/3-4-4-2/3-4-4---\\--2/3-4-4-2/3-4-4-2/3-4-4-4/--+-|
C|-----4-4-----4-4-----4-4---\\------4-4-----4-4-----4-4-4/--+-|
                                                             ^ strum strings behind the nut

D|-----------------------------------------|
A|-----------------------------------------|
F|-----------------------------------------|
C|-4/5-4-4-4/5-4-4-4/5-4-4-----------------| x2
G|-2/3-4-4-2/3-4-4-2/3-4-4-0-0-0-0-0-0-0-0-|
C|-----4-4-----4-4-----4-4-0-0-0-0-0-0-0-0-|
                           * * * * * * * *

Play Riff 3 x4   "Who's gonna help them, woah..."

Riff 3 ending this time:
D|-------------------------|
A|-------------------------|
F|-------------------------|
C|-0-------7---9--/9-/9-/9-|
G|-0-------7---9--/9-/9-/9-|
C|-0-------7---9--/9-/9-/9-|

Play Riff 1 x8   "They're saying yes, I'm saying no..."

Riff 1 ending this time:
D|-------------------|
A|-------------------|
F|-------------------|
C|-9-----------------|
G|-7-------/7-/9-/10-|
C|---4--4--/7-/9-/10-|

Play Riff 6 x1

Enjoy!!
Добавлено: 31.05.2016
Вам также может быть интересно:
Другие материалы по этой песне:
  • Аккорды и текст

Страница создана 31.05.2016
http://primanota.ru/skindred/under-attack-chords.htm
Привет, Гость.
Предлагаем пройти революционный курс по гитаре.
Подарок от PrimaNota.Ru, забирай!