PrimaNota.ru - самый крупный в мире бесплатный архив песенных текстов, аккордов, табулатур и нот


Skindred - Together - таба, видео

Регистрация Запомнить меня
Войти через:  Facebook Google Twitter Vk Yandex Mail.ru

Skindred - Together - таба, видео

Печатать
Просмотров: 116
Уроки эстрадного вокала в Санкт-Петербурге
Авторы: Daniel Pugsley, Benji Webbe, Martyn Ford, Jeff Rose

Skindred
"Together"
Babylon
2002

Got bored and decided to tab this.
Good song.

Drop B (c G E B F B)

x - mute or chunk

Intro/Chorus (Played 4 Times)

c----------------------|
G----------------------|
E--101010--------------|
B--x-x-x-6665/35/35/3--|
F--8-8-8-6665/35/35/3--|
B--------6665/35/35/3--|

Verse 1
(Lead, plays this twice)
c------------------|
G--16~--------16~--|
E--20~--------20~--|
B------------------|
F------------------|
B------------------|

(Rhythm, comes in after
 lead plays measure once, played 4 times)
c-------------------|
G-------------------|
E-------------------|
B-------------------|
F--888--------------|
B-----6665/35/35/3--|


Pre-Chorus 1 (both guitars play this)

c------|
G------|
E--12--|
B--x---| played 54 times
F--10--|
B------|

then play this chunking section and
 start playing intro/chorus

c-----------|
G-----------|
E-----------|
B--xxxxxxx--|
F--xxxxxxx--|
B--xxxxxxx--|

Verse 2

(Lead)
c------------------|
G--16~--------16~--|
E--20~--------20~--|
B------------------|
F------------------|
B------------------|

(Rhythm, plays same time lead plays,
 also played 8 times)
c-------------------|
G-------------------|
E-------------------|
B-------------------|
F--888--------------|
B-----6665/35/35/3--|

Breakdown (both guitars play twice)

c--------------------|
G--------------------|
E--555---------------|
B--xxx---------------|
F--333------43p04p0--|
B-----111555---------|


c-------------------|
G-------------------|
E--555--------------|
B--xxx--------------|
F--333--------------|
B-----11155153-1h3--|

Solo

c-----------------------|
G--2p111112p111112p111--| played 4 times
E-----------------------|
B-----------------------|
F-----------------------|
B-----------------------|

(Lead plays this)
c--------|
G--4p3~--|
E--------|
B--------|
F--------|
B--------|

(Rhythm Plays this)

c--8~--
G------|
E------|
B------|
F------|
B------|

Pre-Chorus 2

(Lead, plays this 3 times)
c-------------------|
G-4p3~--4p3~--4p3~--|
E-------------------|
B-------------------|
F-------------------|
B-------------------|

c-----------------|
G--4p3~-----------|
E-----------------|
B--------xxxxxxx--|
F--------xxxxxxx--|
B--------xxxxxxx--|

(Rhythm, play this twice then chunk)

c--8~--------8~--|
G----------------|
E----------------|
B----------------|
F----------------|
B----------------|

c-----------|
G-----------|
E-----------|
B--xxxxxxx--|
F--xxxxxxx--|
B--xxxxxxx--|

Outro
(Play Chorus 4 times
 then play chunking section
then play chorus 4 more times)

c----------------------|
G----------------------|
E--101010--------------|
B--x-x-x-6665/35/35/3--|
F--8-8-8-6665/35/35/3--|
B--------6665/35/35/3--|

c-----------|
G-----------|
E-----------|
B--xxxxxxx--|
F--xxxxxxx--|
B--xxxxxxx--|

c----------------------|
G----------------------|
E--101010--------------|
B--x-x-x-6665/35/35/3--|
F--8-8-8-6665/35/35/3--|
B--------6665/35/35/3--|

Basically it's

Intro/Chorus
Verse 1
Pre-Chorus 1
Intro/Chorus
Verse 2
Pre-Chorus 1
Intro/Chorus
Breakdown Riff
Solo
Pre-Chorus 2
Outro
Добавлено: 09.09.2013
Другие материалы по этой песне:
  • Аккорды и текст

Страница создана 09.09.2013
http://primanota.ru/skindred/together-chords.htm
Привет, Гость.
Предлагаем пройти революционный курс по гитаре.
Подарок от PrimaNota.Ru, забирай!