PrimaNota.ru - самый крупный в мире бесплатный архив песенных текстов, аккордов, табулатур и нот


Skindred - Open Eyed - таба, видео

Регистрация Запомнить меня
Войти через:  Facebook Google Twitter Vk Yandex Mail.ru

Skindred - Open Eyed - таба, видео

Печатать
Просмотров: 118
-------------------------------------------------------------------------------
                             Open eyed(intro) - Skindred
-------------------------------------------------------------------------------
Tabbed by:Abhinav Bhattacharjee
E-mail:abhinav_bhattacharjee2007@yahoo.co.in

Tuning:

e|---------------------------------------------------------------------------|
B|---------------------------------------------------------------------------|
G|---------------------------------------------------------------------------|
D|-0--------0-XX-3-3-XX-3-XX-5-----------------------------------------------|
A|-0-1\12/1-0-XX-3-3-XX-3-XX-5-----------------------------------------------|
E|-0-1\12/1-0-XX-3-3-XX-3-XX-5-----------------------------------------------|

 and then

e|---------------------------------------------------------------------------|
B|---------------------------------------------------------------------------|
G|---------------------------------------------------------------------------|
D|-0--------0-XX-3-3-XX-3-X-5-X-5--------------------------------------------|
A|-0-1\12/1-0-XX-3-3-XX-3-X-5-X-5--------------------------------------------|
E|-0-1\12/1-0-XX-3-3-XX-3-X-5-X-5--------------------------------------------|




************************************

| /   slide up
| \   slide down
| h   hammer-on
| p   pull-off
| ~   vibrato
| +   harmonic
| x   Mute note
| b   Bend
| pb  Pre-bend
| br  Bend release
| pbr Pre-bend release
| brb Bend release bend

************************************
Добавлено: 22.12.2015
Другие материалы по этой песне:
  • Аккорды и текст

Страница создана 22.12.2015
http://primanota.ru/skindred/open-eyed-chords.htm
Привет, Гость.
Предлагаем пройти революционный курс по гитаре.
Подарок от PrimaNota.Ru, забирай!