PrimaNota.ru - самый крупный в мире бесплатный архив песенных текстов, аккордов, табулатур и нот


Skindred - The Kids Are Right Now - таба, видео

Регистрация Запомнить меня
Войти через:  Facebook Google Twitter Vk Yandex Mail.ru

Skindred - The Kids Are Right Now - таба, видео

Печатать
Просмотров: 166
Уроки эстрадного вокала в Санкт-Петербурге
-------------------------------------------------------------------------------
                   THE KIDS ARE RIGHT NOW - Skindred
-------------------------------------------------------------------------------
Tabbed by: jalpro

Tuning: Standard EADGBe

The riff is the same for the intro and the verses.

Intro/Verse/Outro [0:00] [1:02] [2:49] [3:50]
e|-----------------|-----------------|
B|---------7-------|---------7-----7-|
G|-----8-----8---8-|-----8-------8---|
D|-6-6---6-----6---|-6-6---6---6-----|
A|-----------------|-----------------|
E|-----------------|-----------------|

Pre-chorus [0:31] [1:24] [3:04]
??????

Chorus [0:45] [1:39] [3:19]
              PM-|        PM-|
e|--------|:--------------------------------------------------------------:|--------|
B|--------|:--------------------------------------------------------------:|--------|
G|--------|:--------------------------------------------------------------:|--------|
D|--------|:-------4-4---------4-4------------------6-6---4-4-------------:|--------|
A|-x-xxxx-|:-6-6---2-2-4-4-4---2-2-4-4-4-2-4-6---xx-4-4---2-2---2---4-4---:|-6------|
E|-x-xxxx-|:-4-4-------2-2-2-------2-2-2-0-2-4---xx-------------0---2-2---:|-4------|

Break [2:10]
??????

Electronic [2:18]
??????

Solo [2:33]
e|--------------------------------------4~----447-4-9b11-9~------------------|
B|------------------------4----4-7--4-7--------------------------------------|
G|------------/8-6----4-6----6-----------------------------------------------|
D|-/6---669-6----------------------------------------------------------------|
A|---------------------------------------------------------------------------|
E|---------------------------------------------------------------------------|
Добавлено: 01.08.2015
Другие материалы по этой песне:
  • Аккорды и текст

Страница создана 01.08.2015
http://primanota.ru/skindred/kids-are-right-now-chords.htm
Привет, Гость.
Предлагаем пройти революционный курс по гитаре.
Подарок от PrimaNota.Ru, забирай!