PrimaNota.ru - самый крупный в мире бесплатный архив песенных текстов, аккордов, табулатур и нот


Skin Chamber - Burning Power - таба, видео

Регистрация Запомнить меня
Войти через:  Facebook Google Twitter Vk Yandex Mail.ru

Skin Chamber - Burning Power - таба, видео

Печатать
Просмотров: 71
       Skin Chamber
    - Burning Power - 
          Wound

 tabbed by PelzR (07-28-2015)


This is the song "Burning Power" by the industrial metal band 'Skin Chamber' from their first record "Wound".
There isn't much to say, the song doesn't have much riffs and it isn't difficult to play. One thing I'd like to
mention is there are some minor lead parts (during Riff 3) I'm not bothered to tab because it's most some
chromatic stuff.

Tuning: Standard E (E A D G B e)


Riff 1 - 144 BPM

    E E E E H 3x E E E E E E Q  
e|-------------|---------------||
B|-------------|---------------||
G|o-----------o|---------------||
D|o-----------o|---------------||
A|----------7--|---------------||
E|--4-4-4-4-5--|-4-4-4-5-7-6-5-||
    . . . .      . . . . . . 


Riff 2 - 155 BPM

   E E E E E E E E    E E E E E E E E
e|-----------------||-----------------||
B|-----------------||-----------------||
G|-------------R---||-------------R---||
D|-----------------||-----------------||
A|-----------5---5-||-----------7---7-||
E|-0-0-3-0-0-3---3-||-0-0-3-0-0-5---5-||
   . . . . .          . . . . .     


Riff 3 - 155 BPM

    E S S E S S E S S E S S 3x W    W
e|---------------------------|---|-----||
B|---------------------------|---|-----|| 
G|o-------------------------o|---|-----|| the last two bars
D|o-------------------------o|---|-----|| are some disharmonic noises
A|---------------------------|-1-|-(1)-|| not sure about...
E|--0-0-0-0-0-0-0-0-0-0-0-0--|-3-|-(3)-|| 
    . . . . . . . . . . . .


Riff 4 - 155 BPM

   E S S E S S E S S E S S   E S S E S S E E E E   E S S E S S E S S E S S   E S S E S S E E E E
e|-------------------------|---------------------|-------------------------|---------------------||
B|-------------------------|---------------------|-------------------------|---------------------||
G|-------------------------|-----------------R---|-------------------------|-----------------R---||
D|-------------------------|---------------------|-------------------------|---------------------||
A|-------------------------|---------------5---7-|-------------------------|---------------7---7-||
E|-0-0-0-0-0-0-0-0-0-0-0-0-|-0-0-0-0-0-0-0-3---3-|-0-0-0-0-0-0-0-0-0-0-0-0-|-0-0-0-0-0-0-0-5---5-||
   . . . . . . . . . . . .   . . . . . . .         . . . . . . . . . . . .   . . . . . . .


Riff 5 - 155 BPM

   W    W
e|---|-----||
B|---|-----||
G|---|-----|| disharmonic noises
D|---|-----|| not quite sure...
A|-1-|-(1)-||
E|-3-|-(3)-||




Structure:
-------------
Riff 1  12x
Riff 2  12x
Riff 3   6x
Riff 1  12x
Riff 2  12x
Riff 4   4x
Riff 5   1x


Description:
-------------
o   -> repeat
o
.   -> palm mute
R   -> rest
(x) -> let ring

W   -> whole notes
H   -> half notes
Q   -> quarter notes
E   -> 8th notes
S   -> 16th notes
Добавлено: 17.12.2015
Другие материалы по этой песне:
  • Аккорды и текст

Страница создана 17.12.2015
http://primanota.ru/skin-chamber/burning-power-chords.htm
Привет, Гость.
Предлагаем пройти революционный курс по гитаре.
Подарок от PrimaNota.Ru, забирай!