PrimaNota.ru - самый крупный в мире бесплатный архив песенных текстов, аккордов, табулатур и нот


Skillet - Thirst Is Taking Over - текст песни, таба, бас-таба, видео

Регистрация Запомнить меня
Войти через:  Facebook Google Twitter Vk Yandex Mail.ru

Skillet - Thirst Is Taking Over - текст песни, таба, бас-таба, видео

Печатать
Просмотров: 623
Уроки эстрадного вокала в Санкт-Петербурге
k I never done one of these before, most of this is right tho...i think

     One Verse Riff
E----------------------------------------------|
B--------4-4-------3-3-1-1------4-4------3-1-1-|
G----------------------------------------------|
D----------------------------------------------|
A--3-3-3-----3-3-3--------3-3-3----3-3-3-------|
E----------------------------------------------|

     Second Verse Riff

E--------------------------|
B--------------------------|
G--------------------------|
D------5-5-------5-----4---|
A------6-6-------6-----5---|
E---6---------5-----4------|

     Chorus (Distortion)

E----------------------------------------|
B----------------------------------------|
G----------------------------------------|
D---33333333-55555555-11111111-33333333—-|
A---33333333-55555555-11111111-33333333--|
E---33333333-55555555-11111111-33333333--|

     Bridge (clean)

E----------------------------------------|
B----------------------------------------|
G----------------------------------------|
D---66666666-11111111-55555555-66666666--|
A---66666666-11111111-55555555-66666666--|
E---66666666-11111111-55555555-66666666--|

     Outro

Outro
E-3-3-3-3-3-3-3-3-3-3-3-3-3-3-3-3--------|
B—-4-4-4-4-4-4-4-4-3-3-3-3-4-4-4-4-------|

this is pretty much it...
Добавлено: 10.05.2012
Другие материалы по этой песне:

Страница создана 10.04.2012
http://primanota.ru/skillet/thirst-is-taking-over-chords.htm
Привет, Гость.
Предлагаем пройти революционный курс по гитаре.
Подарок от PrimaNota.Ru, забирай!