PrimaNota.ru - самый крупный в мире бесплатный архив песенных текстов, аккордов, табулатур и нот


Skillet - Sometimes - аккорды и текст, таба, бас-таба, видео

Регистрация Запомнить меня
Войти через:  Facebook Google Twitter Vk Yandex Mail.ru

Skillet - Sometimes - аккорды и текст, таба, бас-таба, видео

Печатать
Просмотров: 1060
Sometimes
Skillet
Sometimes
Skillet

Please rate...

Intro (Play tabs in successive order.)

G5   Eb5 (open D/A strings)

|7-7-7-7-7-7|
|7-7-7-7-7-7|
|-----------|
|-----------|
|-----------|

|-------------------------------|
|-------------------------------|
|-------------------------------|
|7-7-7---17---7-7---19---12---14|
|7-7-7---17---7-7---19---12---14|
|7-7-7---17---7-7---19---12---14|

|-----------------------------------------|
|-----------------------------------------|
|7-7-------------------7-7-------------8-8|
|-----6-6---7-7---4-4-------6-6---7-7-----|
|-----------------------------------------|
|-----------------------------------------|  (2x)

Verse 1

Em                         
Sometimes when I lie

Am                         
I know you're onto me

Em                                                
Sometimes I don't mind

Am          D          Em
How hateful that I can be

Em    
Sometimes I don't try

Am
To make you happy

  G                       D              Am
I don't know why I do the things I do to you but...


Chorus

G                 C        Em
Sometimes I don't wanna be better

G                    C          Em
Sometimes I can't be put back together

G                   C         Em
Sometimes I find it hard to believe

Em              C              Em
There's someone else who could be

Am                   Em
Just as messed up as me

|-------------------------------|
|-------------------------------|
|-------------------------------|
|7-7-7---17---7-7---19---12---14|
|7-7-7---17---7-7---19---12---14|
|7-7-7---17---7-7---19---12---14|

|-----------------------------------------|
|-----------------------------------------|
|7-7-------------------7-7-------------8-8|
|-----6-6---7-7---4-4-------6-6---7-7-----|
|-----------------------------------------|
|-----------------------------------------|  (2x)


Verse 2

Em
Sometimes don't deny

Am
That everything is wrong

Em
Sometimes rather die

Am        D           Em
Than to admit it's my fault

Em
Sometimes when you cry

Am
I just don't care at all

   G                      D              Am
I don't know why I do the things I do to you but...


Chorus

G                 C        Em
Sometimes I don't wanna be better

G                    C          Em
Sometimes I can't be put back together

G                   C         Em
Sometimes I find it hard to believe

Em              C              Em
There's someone else who could be

Am                   Em
Just as messed up as me


(Guitar Solo)


Bridge

Em                D
I want someone to hurt

Em             D
Like the way I hurt

Em               D             Em
It's sick but it makes me feel better


Verse 3

Em
Sometimes I can't hide

Am
The demons that I face

Em
Sometimes don't deny

Am            C      Am        D
I'm sometimes sinner sometimes saint


Chorus

G                 C        Em
Sometimes I don't wanna be better (Everything is wrong forever)

G                    C          Em
Sometimes I can't be put back together (Sometimes it's gone forever)

G                   C         Em
Sometimes I find it hard to believe

Em              C              Em
There's someone else who could be

Am                   Em
Just as messed up as me


Outro 

Am                   Em
Just as messed up as me
Добавлено: 27.08.2014
Другие материалы по этой песне:

Страница создана 21.02.2012
http://primanota.ru/skillet/sometimes-chords.htm
Привет, Гость.
Предлагаем пройти революционный курс по гитаре.
Подарок от PrimaNota.Ru, забирай!