PrimaNota.ru - самый крупный в мире бесплатный архив песенных текстов, аккордов, табулатур и нот


Skillet - More Faithful - текст песни, таба, бас-таба, видео

Регистрация Запомнить меня
Войти через:  Facebook Google Twitter Vk Yandex Mail.ru

Skillet - More Faithful - текст песни, таба, бас-таба, видео

Печатать
Просмотров: 257
		   Song: More Faithful
Artist: Skillet
Album: The Simply x-celent 1.99 sampler
Tabbed by Bryan (baxe@misi.net)
Copywrite 1998 Phantom Music


bass:

the verses are just a cycle of this..

e|--2-2--5--10-10--9--2-2--5--10-10--9--5/9-9b--|
    F#   A  D      C# F#   A  D      C#

it ends on the 10 (D) before it goes to the chorus..soo cut it here

and the chorus is..

a|-----------5-5-5-5--|
e|--5-5-5-5-----------|  3x
    A        D

then

a|----------8-8-8-8--9-9-9--5--|
e|--5-5-5-5--------------------|
    A       F        G      D

the bridge (which is the instrumental) is just the verse line



lead:

verse..there is no lead...

chorus..

e|--x-x-x--|
b|--x-x-x--|
g|--x-x-x--|
d|--x-x-x--|
a|--x-x-x--|
e|--x-x-x--|

and the bridge is..

g|--9v--7v--9v--7v--|


b|--17-17-17-17-17---7v--5v----7v-9v--|
e|------------------------------------|

b|---10--7v--9v--10--12/15--15-----------------|
e|------------------------------6/7--7--9--10--|


rythm:

verse..nothing

chorus is this..

A-D-A-D-A-D-A-F-G-D

    A  D  F  G
e|--x--2--1--3--|
b|--2--3--1--0--|
g|--2--2--2--0--|
d|--2--0--3--0--|
a|--0--x--x--2--|
e|--x--x--x--3--|


i typed this out for a friend, and i saw it wasnt on here..so
im putting it up..but i dont want to re-type it..or put lyrics
so be good guitarists and figure it out..its not hard..im pretty
sure it close..dont eat me out if its not though..
     
Добавлено: 20.10.2013
Другие материалы по этой песне:
  • Аккорды и текст

Страница создана 29.03.2012
http://primanota.ru/skillet/more-faithful-chords.htm
Привет, Гость.
Предлагаем пройти революционный курс по гитаре.
Подарок от PrimaNota.Ru, забирай!