PrimaNota.ru - самый крупный в мире бесплатный архив песенных текстов, аккордов, табулатур и нот


Skillet - Madness In Me - аккорды и текст, таба, видео

Регистрация Запомнить меня
Войти через:  Facebook Google Twitter Vk Yandex Mail.ru

Skillet - Madness In Me - аккорды и текст, таба, видео

Печатать
Просмотров: 451
Madness In Me
Skillet
Madness in Me 
Skillet

This song is tabbed in the key of Em, but the original song was recorded in Cm. You can tune down a 
whole step to get to the original key if wanted. If you re-tune to Cm, 
transpose down two semi-tones.

Intro/Main riff 

|--------------------------------------------------------------|
|--------------------------------------------------------------|
|--------------------------------------------------------------|
|3-3---0-2---7-3-0---0-2-0-8-7---3-3---0-2---7-3-0---0-2-0-10-5|
|3-3---0-2---7-3-0---0-2-0-8-7---3-3---0-2---7-3-0---0-2-0-10-5|
|3-3---0-2---7-3-0---0-2-0-8-7---3-3---0-2---7-3-0---0-2-0-10-5|


Verse 1

Em
Just one spark
 
    Am
Is all it takes

Em
I tried so hard
 
       Am             Em
But it all goes up in flames


Pre-chorus

Em
This is not the way that I thought

                    G
I would turn out to be

Em           
Tried to give but all that I got

           G
Was more insanity

Em                                        
Broken everything that I've touched

          G
It's gone against me

Em      Am  Em 
I can't get away


Chorus

Em
From the fire

            G
That burns inside, consuming

D
I fight to stay alive

    Am      Em
But I can't breathe

           G
The voices scream 


The enemy 

D
Takes over everything

Am
This is the madness in me


Main riff


Verse 2

Em
Just one chance

   Am  
Is all it takes

Em
Can't change the past

          Am              Em
But I can fight to change today


Pre-chorus

Em
This is not the way that I thought

                    G
I would turn out to be

Em           
Tried to give but all that I got

           G
Was more insanity

Em                                        
Broken everything that I've touched

           G
It's gone against me

Em      Am  Em 
Got to get away


Chorus

Em
From the fire

            G
That burns inside, consuming

D
I fight to stay alive

    Am      Em
But I can't breathe

           G
The voices scream 


The enemy 

D
Takes over everything

Am
This is the madness in me


Bridge (2x)

|-----------------------------------------------------------------------|
|-----------------------------------------------------------------------|
|-----------------------------------------------------------------------|
|3-3-3-3---2-2---3-3-3-3---5-5---0-0---3-3-3-3---2-2---3-3-3-3---5-7-8-7|
|3-3-3-3---2-2---3-3-3-3---5-5---0-0---3-3-3-3---2-2---3-3-3-3---5-7-8-7|
|3-3-3-3---2-2---3-3-3-3---5-5---0-0---3-3-3-3---2-2---3-3-3-3---5-7-8-7|


Main riff


Em          
Just one spark

   Am
Is all it takes


Chorus (2x)


Em
From the fire

            G
That burns inside, consuming

D
I fight to stay alive

    Am      Em
But I can't breathe

           G
The voices scream 


The enemy 

D
Takes over everything

Am
This is the madness in me


Outro 

Em
The madness in me

            Am            
This is the madness in me

Em             G D Em 
The madness in me
Добавлено: 29.05.2014
Другие материалы по этой песне:

Страница создана 10.08.2013
http://primanota.ru/skillet/madness-in-me-chords.htm
Привет, Гость.
Предлагаем пройти революционный курс по гитаре.
Подарок от PrimaNota.Ru, забирай!