PrimaNota.ru - самый крупный в мире бесплатный архив песенных текстов, аккордов, табулатур и нот


Skillet - Fingernails - текст песни, таба, бас-таба, видео

Регистрация Запомнить меня
Войти через:  Facebook Google Twitter Vk Yandex Mail.ru

Skillet - Fingernails - текст песни, таба, бас-таба, видео

Печатать
Просмотров: 383
-------------------------------------------------------------------------------
                             FINGERNAILS - Skillet
-------------------------------------------------------------------------------
Tabbed by: Fackunator
E-mail: fackunator@hotmail.com

Tuning: Drop C (CGCFAD)

Intro/Main Riff:

D|-----------------------------------------------|
A|-----------------------------------------------|
F|---------8----------5-----------8----------5---|
C|---0-0-0-X----0-0-0-X-----0-0-0-X----0-0-0-X---| x2
G|---0-0-0-6----0-0-0-3-----0-0-0-6----0-0-0-3---|
C|---0-0-0-X----0-0-0-X-----0-0-0-X----0-0-0-X---|

Verse 1:

D|-----------------------------------------------|
A|-----------------------------------------------|
F|---------8----------5-----------8----------5---|
C|---0-0-0-X----0-0-0-X-----0-0-0-X----0-0-0-X---| x4
G|---0-0-0-6----0-0-0-3-----0-0-0-6----0-0-0-3---|
C|---0-0-0-X----0-0-0-X-----0-0-0-X----0-0-0-X---|
     . . .      . . .       . . .      . . . 
      PM          PM          PM         PM

And the 4th time it goes like

D|---------------------------------------------------|
A|---------------------------------------------------|
F|---------8----------5-----------8------------------|
C|---0-0-0-X----0-0-0-X-----0-0-0-X-----3/--0-xxxx---| 
G|---0-0-0-6----0-0-0-3-----0-0-0-6-----3/--0-xxxx---|
C|---0-0-0-X----0-0-0-X-----0-0-0-X-----3/--0-xxxx---|
     . . .      . . .       . . .       
      PM         PM          PM


Chorus

D|------------------------------------------------------------------|
A|------------------------------------------------------------------|
F|----------------3-3-----------------------------------------------|
C|---0-0-1--1-1---3-3--5--5-5----0-0-1--1-1----5-5---0--x--xxxx-----|
G|---0-0-1--1-1---1-1--5--5-5----0-0-1--1-1----5-5---0--x--xxxx-----|
C|---0-0-1--1-1--------5--5-5----0-0-1--1-1----5-5---0--x--xxxx-----|

D|-----------------------------------------------------------------------------------------|
A|-----------------------------------------------------------------------------------------|
F|----------------3-3----------------------------------------------------------------------|
C|---0-0-1--1-1---3-3--5--5-5----0-0-1--1-1---8-8-8--8-8-8---0-0-1--1-1---8-8-8--8-8-8-----|
G|---0-0-1--1-1---1-1--5--5-5----0-0-1--1-1---8-8-8--8-8-8---0-0-1--1-1---8-8-8--8-8-8-----|
C|---0-0-1--1-1--------5--5-5----0-0-1--1-1---8-8-8--8-8-8---0-0-1--1-1---8-8-8--8-8-8-----|


Post-chorus

D|-------------------------------------------------------|
A|-------------------------------------------------------|
F|-------------------11-11------------------------11-11--|
C|---xxxx--0---xxxx--x--x---------xxxx--0---xxxx--x--x---|
G|---xxxx--0---xxxx--9--9---------xxxx--0---xxxx--9--9---|
C|---xxxx--0---xxxx--x--x---------xxxx--0---xxxx--x--x---|

Repeat intro
Repeat verse
Repeat chorus (except that you end up with open instead of the post-chorus)


Bridge (all palm-muted)
This is the closest I could get to the bridge, sorry if its wrong

D|------------------------------------------------------------------------------------|
A|------------------------------------------------------------------------------------|
F|------------------------------------------------------------------------------------|
C|--5-5-5-7-5-8-7-5-7--5-5-5-7-5-8-7-5-7-------------8-8-7-5------8-7------8-7--------| x4
G|-----------------------------------------5-5-5-7-5----------7-5------7-5------------|
C|------------------------------------------------------------------------------------|


Repeat post-chorus x2
Repeat chorus 
Repeat post-chorus x3 

The third time is different and it goes like this:

D|------------------------------------------------------|
A|------------------------------------------------------|
F|-------------------11-11------------------------19----|
C|---xxxx--0---xxxx--x--x---------xxxx--0---xxxx--x-----|
G|---xxxx--0---xxxx--9--9---------xxxx--0---xxxx--17----|
C|---xxxx--0---xxxx--x--x---------xxxx--0---xxxx--x-----|

Repeat Main Riff


And that's pretty much it. I've used the version from the Collide album tab, just added the bridge and
made it clearer. Hope you enjoy! Peace

***********************************************
Добавлено: 03.05.2016
Другие материалы по этой песне:

Страница создана 19.04.2012
http://primanota.ru/skillet/fingernails-chords.htm
Привет, Гость.
Предлагаем пройти революционный курс по гитаре.
Подарок от PrimaNota.Ru, забирай!