PrimaNota.ru - самый крупный в мире бесплатный архив песенных текстов, аккордов, табулатур и нот


Skillet - Energy - текст песни, таба, видео

Регистрация Запомнить меня
Войти через:  Facebook Google Twitter Vk Yandex Mail.ru

Skillet - Energy - текст песни, таба, видео

Печатать
Просмотров: 476
  Intro
E----------------------------------------------------------------------|
B----------------------------------------------------------------------|
G---------------777-------------444--------------777-------------444---|
D--0-0-6650-00-7555--0-6650-00-5222-0-0-6650-00-7555--0-6650-00-5222---|
A--0-0-6650-00-7555--0-6650-00-5222-0-0-6650-00-5-----0-6650-00-3------|
D--0-0-6650-00-------0-6650-00------0-0-6650-00-------0-6650-00--------|

  Verse 1
-----------------------------------------------------------------------|
-----------------------------------------------------------------------|
-----------------------------------------------------------------------|
0---xx---555533330---xx---555533330---xx---555533330---xx--------------| (2x)
0---xx---333311110---xx---333311110---xx---333311110---xx---33331111---|
0---xx--0--------0---xx--0--------0---xx--0--------0---xx--0-----------|

  Pre-Chorus
------------------------|
------------------------|
------------------------|
------------------------|
2-22353---------5535665-|
2-22353---------5535665-|

  Chorus
-----------------------------------------------------------------|
-----------------------------------------------------------------|
--------------------------------5/7-7----------------------------|
0--0xx3---------8--8xx5---------5/7-7xx3---------8--8xx5---------|  (2x)
0--0xx3---------8--8xx5---------3/5-5xx3---------8--8xx5---------|
0--0xx3---------8--8xx5--------------xx3---------8--8xx5---------|

  Play intro again
--------------------------------------------------------------------|
--------------------------------------------------------------------|
-------------777-------------444--------------777-------------444---|
0-0-6650-00-7555--0-6650-00-5222-0-0-6650-00-7555--0-6650-00-5222---|
0-0-6650-00-5-----0-6650-00-3----0-0-6650-00-5-----0-6650-00-3------|
0-0-6650-00-------0-6650-00------0-0-6650-00-------0-6650-00--------|

  Verse 2
-----------------------------------------------------------------------|
-----------------------------------------------------------------------|
-----------------------------------------------------------------------|
0---xx---555533330---xx---555533330---xx---555533330---xx--------------| (2x)
0---xx---333311110---xx---333311110---xx---333311110---xx---33331111---|
0---xx--0--------0---xx--0--------0---xx--0--------0---xx--0-----------|

  Pre-Chorus
------------------------|
------------------------|
------------------------|
------------------------|
2-22353---------5535665-|
2-22353---------5535665-|

  Chorus
-----------------------------------------------------------------|
-----------------------------------------------------------------|
--------------------------------5/7-7----------------------------|
0--0xx3---------8--8xx5---------5/7-7xx3---------8--8xx5---------|  (2x)
0--0xx3---------8--8xx5---------3/5-5xx3---------8--8xx5---------|
0--0xx3---------8--8xx5--------------xx3---------8--8xx5---------|

  Bridge
x--------------------------------                -----------------|
x--------------------------------                -----------------|
x--------------------------------                -----------------|
0--------------------------------                -----------------|  (4x)
x--------------------------------                -----------------|
0--------------------------------                6665553333333333-|


----------------                 ---------------------------------|
----------------                 ---------------------------------|
----------------                 ---------------------------------|
----------------  (4x)           ---------------------------------|  (2x)
------------3665                 ------------5/\6------------5/\6-|
6665553333333---                 6-x5-x3---------6-x5-x3----------|


--------------------------------    ---------------------------------|
--------------------------------    ---------------------------------|
-----------------------------444    -------------777-------------444-|
------------5555------------5222    0-0-6650-00-7555x-0-6650-00-5222-|  (3x)
----------------------------3---    0-0-6650-00-5---x-0-6650-00-3----|
0-0-6650-00-----0-0-6650-00-----    0-0-6650-00-----x-0-6650-00------|

  Verse 1 (Same words but less guitar)
--------------------------------------------------------|
--------------------------------------------------------|
--------------------------------------------------------|
----------------0---------------0---------------0-------|
--------3---1-----------3---1-----------3---1-----------|
0---xx-0------------xx-0------------xx-0----------------|

  Chorus
-----------------------------------------------------------------|
-----------------------------------------------------------------|
--------------------------------5/7-7----------------------------|
0--0xx3---------8--8xx5---------5/7-7xx3---------8--8xx5---------|  (4x)
0--0xx3---------8--8xx5---------3/5-5xx3---------8--8xx5---------|
0--0xx3---------8--8xx5--------------xx3---------8--8xx5---------|

  Intro
---------------------------------|
---------------------------------|
-------------777-------------444-|
0-0-6650-00-7555--0-6650-00-5222-|
0-0-6650-00-7555--0-6650-00-5222-|
0-0-6650-00-------0-6650-00------|
Добавлено: 08.06.2013
Другие материалы по этой песне:

Страница создана 22.04.2012
http://primanota.ru/skillet/energy-chords.htm
Привет, Гость.
Предлагаем пройти революционный курс по гитаре.
Подарок от PrimaNota.Ru, забирай!