PrimaNota.ru - самый крупный в мире бесплатный архив песенных текстов, аккордов, табулатур и нот


Skillet - Each Other - аккорды и текст, видео

Регистрация Запомнить меня
Войти через:  Facebook Google Twitter Vk Yandex Mail.ru

Skillet - Each Other - аккорды и текст, видео

Печатать
Просмотров: 227
Each Other
Skillet
Here's the intro (It's probably not right but it sound cool)(:

WITH DELAY PEDAL

Am G/B F C Amadd2 F7M   G C

Here's the chords.
    Am   G/B    F     C    Amadd2   F7M      G
e|--X-----X-----X-----X------X--------0------X-|
B|--1-----3-----1-----1------0--------1------3-|
G|--2-----0-----2-----0------5--------2------0-|
D|--2-----0-----3-----2------5--------3------0-|
A|--0-----2-----3-----3------0--------3------X-|
E|--X-----x-----x-----x------X--------X------3-|
This goes throughout the verse.

Then...WITH DELAY PEDAL.

E---------------|
B----------5--3-|
G------O---5--3-|
D----3-----5--3-|
A--3-------3--1-|
E--------------|

I'm not sure yet what's being played during "gotta still believe in eachother"

but the chords are C Bb F

A5  G5   F5   C5

Thats about it.  The tab for "We must hold on . . ." is used during the lead.  
The rest is reapeats
Добавлено: 28.08.2013
Другие материалы по этой песне:
  • Аккорды и текст

Страница создана 15.07.2012
http://primanota.ru/skillet/each-other-chords.htm
Привет, Гость.
Предлагаем пройти революционный курс по гитаре.
Подарок от PrimaNota.Ru, забирай!