PrimaNota.ru - самый крупный в мире бесплатный архив песенных текстов, аккордов, табулатур и нот


Skillet - Cycle Down - текст песни, таба, видео

Регистрация Запомнить меня
Войти через:  Facebook Google Twitter Vk Yandex Mail.ru

Skillet - Cycle Down - текст песни, таба, видео

Печатать
Просмотров: 342
-------------------------------------------------------------------------------
			     Cycle Down - Skillet
-------------------------------------------------------------------------------
Tabbed by:Cobra Starship
Email:happyboy04@hotmail.com
This is my first tab so don't go too hard on me

Tuning:drop D For those of you who don't know what drop d is, you tune the top thickest 
to sound like the d string 4th from the bottom

Part I- All notes on the E string are palm muted
You play this part 4 times

e|---------------------------------------------------------------------------|
B|---------------------------------------------------------------------------|
G|---------------------------------------------------------------------------|
D|-0---------2----------3-----------33-00-22---------------------------------|
A|-------------------------------------------33------------------------------|
E|----0000------0000---------0000--------------------------------------------|
     Part II Played with a chord fingering
You Play this part 6 times
e|---------------------------------------------------------------------------|
B|---------------------------------------------------------------------------|
G|---------------------------------------------0-----------------------------|
D|------0----------3----------------3----------------------------------------|
A|---0----------5-------5---------3---------3------3-------------------------|
E|-0--------5-------------------3---------2----------------------------------|
  Part III- Everything on the E string is palm muted
You play this part 3 times
e|---------------------------------------------------------------------------|
B|---------------------------------------------------------------------------|
G|---------------------------------------------------------------------------|
D|---------------------3-----------------------------------------------------|
A|-------------------------3-3-----------------------------------------------|
E|000--555--555--333---------------------------------------------------------|
  Part IIII- It's pretty musch the same as Part III but with a different ending
You Play this part only once
e|---------------------------------------------------------------------------|
B|---------------------------------------------------------------------------|
G|-----------------------------2-0-------------------------------------------|
D|---------------------3-------------3-5-------------------------------------|
A|-------------------------3-------------------------------------------------|
E|-000--555--555--333--------------------------------------------------------|
  Part V You play this part 2 times
e|---------------------------------------------------------------------------|
B|---------------------------------------------------------------------------|
G|---------------------------------------------------------------------------|
D|-0--0--0--3--0--333--03--5353--10--10--10--10--10--------------------------|
A|-0--0--0--3--0--333--03--5353---8---8---8---8---8--------------------------|
E|-0--0--0--3--0--333--03--5353---8---8---8---8---8--------------------------|
  After Part V you play Part I-V again and then you play Part VI

This is part VI you play it 2 times over
e|---------------------------------------------------------------------------|
B|-------------6--------5----------------------------------------------------|
G|-------------X--------X----------------------------------------------------|
D|-10----------3-X10----2----------------------------------------------------|
A|--8-X20------0--------0----------------------------------------------------|
E|--8----------0--------0----------------------------------------------------|

After that you play Part V again and then you play part one and thats the end of the 
 Hope this tab works for you.


| /  slide up
| \  slide down
| h  hammer-on
| p  pull-off
| ~  vibrato
| +  harmonic
| x  Mute note
===============================================================================
Добавлено: 03.07.2013
Другие материалы по этой песне:
  • Аккорды и текст

Страница создана 20.05.2012
http://primanota.ru/skillet/cycle-down-chords.htm
Привет, Гость.
Предлагаем пройти революционный курс по гитаре.
Подарок от PrimaNota.Ru, забирай!