PrimaNota.ru - самый крупный в мире бесплатный архив песенных текстов, аккордов, табулатур и нот


Skik - Anniek - таба, видео

Регистрация Запомнить меня
Войти через:  Facebook Google Twitter Vk Yandex Mail.ru

Skik - Anniek - таба, видео

Печатать
Просмотров: 70
Уроки эстрадного вокала в Санкт-Петербурге
ANNIEK  -       Skik

INTRO:    Bbsus2  C7      Am
e|------1-------0/------0h1p0----/
B|----1-------1--/----1-------0--/
G|--3-------3----/--2-----------2/      [2x]
D|---------------/---------------/
A|1-------3------/0--------------/
E|---------------/---------------/

Verse / Chorus:
  Bbsus2  C7      Am
e|------1-------0/------0h1p0----/
B|----1-------1--/----1-------0--/
G|--3-------3----/--2-----------2/     [3x]
D|---------------/---------------/
A|1-------3------/0--------------/
E|---------------/---------------/

  Bbsus2  C7      Am7     Dm7
e|------1-------0/------3-------1/
B|----1-------1--/----1-------1--/
G|--3-------3----/--0-------2----/
D|---------------/--------0------/
A|1-------3------/0--------------/
E|---------------/---------------/

  Bbsus2  C7      Am
e|------1-------0/------0h1p0----/
B|----1-------1--/----1-------0--/
G|--3-------3----/--2-----------2/   [3x]
D|---------------/---------------/
A|1-------3------/0--------------/
E|---------------/---------------/


Na verloop van tijd
Verwacht je dat iets slijt
Nou misschien een beetje dan
Een beetje roestigheid

Mijn God wat was het wat
Het was echt heel apart
Ik had niet veel gegeven toen
En toch gaf ik mijn hart


Chorus:
Anniek
Anniek
Jij zorgt voor de maneschijn
En ik voor de muziek


Intro theme    [1x]


Ik voel de vlinders nog
Ik heb ze nooit gezocht
Sterker nog je moest eens zien
Hoe ik er tegen vocht

De zon verdreef de kou
Hetzelfde doet hij nou
Elk jaar als het zomer wordt
Dan denk ik weer aan jou


Chorus:
Anniek
Anniek
Jij zorgt voor de maneschijn
En ik voor de muziek


Break: 
fluit melodielijn van verse


Outro:
Anniek
Anniek
Jij zorgt voor de maneschijn
En ik voor de muziek//
Добавлено: 30.11.2015
Другие материалы по этой песне:
  • Аккорды и текст

Страница создана 30.11.2015
http://primanota.ru/skik/anniek-chords.htm
Привет, Гость.
Предлагаем пройти революционный курс по гитаре.
Подарок от PrimaNota.Ru, забирай!