PrimaNota.ru - самый крупный в мире бесплатный архив песенных текстов, аккордов, табулатур и нот


Skids - Working For The Yankee Dollar - бас-таба, видео

Регистрация Запомнить меня
Войти через:  Facebook Google Twitter Vk Yandex Mail.ru

Skids - Working For The Yankee Dollar - бас-таба, видео

Печатать
Просмотров: 44
Авторы музыки: Stuart Adamson
Авторы текста: Richard Jobson
------------------------------------------------------------------------------
                   Working For The Yankee Dollar - The Skids
------------------------------------------------------------------------------

Tabbed by: ChrisT

From the Album: Days In Europa (1979)

Tuning: Drop D

Intro
G|-------------------9-9-----7-7-----------------9-9---7---7----|
D|-------9-7---7---------------------9-7---7--------------------|
A|-----9-----7---777-----5-5-------9-----7---777-----5----------|
D|---9---------------------------9------------------------------|

G|-------------------9-9-----7-7-----------------9----------------|
D|-------9-7---7---------------------9-7---7---------7---7---7----|
A|-----9-----7---777-----5-5-------9-----7---777---5--------------|
D|---9---------------------------9--------------------------------|

Verse                    Repeat x4
G|--------------------------------|
D|o------------------------------o|
A|o---5\--5-------5\--5-4---2----o|
D|----------7\--7-----------------|

Bridge                         Repeat x4
G|--------------------------------------|
D|o---------------------------2---0----o|
A|o---2---0-----------2---0------------o|
D|------------2---0---------------------|

G|--------------------------------|
D|o------------------------------o|
A|o---5\--5-------5\--5-4---2----o|
D|----------7\--7-----------------|

Verse                    Repeat x4
G|--------------------------------|
D|o------------------------------o|
A|o---5\--5-------5\--5-4---2----o|
D|----------7\--7-----------------|

Bridge                         Repeat x4
G|--------------------------------------|
D|o---------------------------2---0----o|
A|o---2---0-----------2---0------------o|
D|------------2---0---------------------|

Chorus              Repeat x4
G|----------7-6-4------------|
D|o-------7---------5-------o|
A|o---555-------------------o|
D|---------------------------|

G|--------------------------------------------------------------------|
D|---7---7---7---7-5h7---7---7---7-5h7---7---7---7-5h7-5-4-5-4--------|
A|-------------------------------------------------------------7-5----|
D|--------------------------------------------------------------------|

G|--------------------------------|
D|o------------------------------o|
A|o---5\--5-------5\--5-4---2----o|
D|----------7\--7-----------------|

Verse                    Repeat x4
G|--------------------------------|
D|o------------------------------o|
A|o---5\--5-------5\--5-4---2----o|
D|----------7\--7-----------------|

Bridge                         Repeat x4
G|--------------------------------------|
D|o---------------------------2---0----o|
A|o---2---0-----------2---0------------o|
D|------------2---0---------------------|

G|-------------------9-9-----7-7-----------------9-9---7---7----|
D|-------9-7---7---------------------9-7---7--------------------|
A|-----9-----7---777-----5-5-------9-----7---777-----5----------|
D|---9---------------------------9------------------------------|

G|-------------------9-9-----7-7-----------------9-9---7--------|
D|-------9-7---7---------------------9-7---7--------------------|
A|-----9-----7---777-----5-5-------9-----7---777-----5---5\-----|
D|---9---------------------------9------------------------------|

                          Repeat x4
G|---------------------------------|-------------------------------|
D|o-------------------------------o|-------------------------------|
A|o---5-5-----------5-5-----------o|---5-5--------55555-5-5---5----|
D|----------------7----------------|-------------------------------|

Bridge                 Repeat Until Fade
G|--------------------------------------|
D|o---------------------------2---0----o|
A|o---2---0-----------2---0------------o|
D|------------2---0---------------------|

Добавлено: 18.04.2016
Другие материалы по этой песне:
  • Аккорды и текст

Страница создана 18.04.2016
http://primanota.ru/skids/working-for-yankee-dollar-chords.htm
Привет, Гость.
Предлагаем пройти революционный курс по гитаре.
Подарок от PrimaNota.Ru, забирай!