PrimaNota.ru - самый крупный в мире бесплатный архив песенных текстов, аккордов, табулатур и нот


Skids - Working Foe The Yankee Dollar - бас-таба, видео

Регистрация Запомнить меня
Войти через:  Facebook Google Twitter Vk Yandex Mail.ru

Skids - Working Foe The Yankee Dollar - бас-таба, видео

Печатать
Просмотров: 116
Working For The Yankee Dollar
Recorded and released by the Scottish Punk band The Skids, this song
Reached number 20 in November 1979. Original bassist William Simpson.
Tab by bass50611. Typical protest song from the punk era.
Any comments its bass254@btinternet.com

Intro:
G|-------|----------------------------------------------------------------|
D|-DRUM--|----9-7---7--------------9-7---7--------------9-7---7-----------|
A|-START-|---9----7---7-7---5-5---9----7---7-7---5-5---9----7---7-7---5-5-|
E|-------|--7--------------------7--------------------7-------------------|

G|----------------------7--|
D|---9-7---7-----------7-7-|
A|--9----7---7-7---5--5----|
E|-7-----------------------|

Verse:                  (PLAY THIS x 2)
G|------------------------------------------|
D|------------------------------------------|
A|-5---5-----5---5-----5---5-----5---5------|
E|------5---5-----5---5-----5---5-----5---5-|

Bridge 1:               (PLAY THIS x 2)
G|------------------------------------|
D|------------------------------------|
A|---5--5-----5-7-5----5--5----5-7-5--|
E|-7---0----7--------7---0----7-------|

For Interlude: (PLAY VERSE x 1)

Repeat Verse & Repeat Bridge 1:

Chorus:
G|------------------------------------------|
D|------------------------------------------|
A|-5---5-----5---5-----5---5-----5---5------|
E|------5---5-----5---5-----5---5-----5---5-|

Solo:
G|---------------------------2-0--------|
D|-2-2-2-2-2-2-2-2---2-2-2-2----4-2-0---|
A|------------------------------------4-|
E|--------------------------------------|

G|------------------------------------------|
D|------------------------------------------|
A|-5---5-----5---5-----5---5-----5---5------|
E|------5---5-----5---5-----5---5-----5---5-|

Repeat Verse, Bridge 1 and Intro:

Bridge 2:
G|-------------------------------------------------------------------|
D|-------------------------------------------------------------------|
A|-5-5---5-5---5-5---5-5---5-5---5-5---5-5---5-5---5-5---5-5-5-5-5-5-|
E|-------------------------------------------------------------------|

Repeat Bridge 1 To Fade /End (Suggest ending song with Intro :o))
Добавлено: 10.06.2013
Другие материалы по этой песне:
  • Аккорды и текст

Страница создана 10.06.2013
http://primanota.ru/skids/working-foe-the-yankee-dollar-chords.htm
Привет, Гость.
Предлагаем пройти революционный курс по гитаре.
Подарок от PrimaNota.Ru, забирай!