PrimaNota.ru - самый крупный в мире бесплатный архив песенных текстов, аккордов, табулатур и нот


Skids - Out Of Town - аккорды и текст, таба, видео

Регистрация Запомнить меня
Войти через:  Facebook Google Twitter Vk Yandex Mail.ru

Skids - Out Of Town - аккорды и текст, таба, видео

Печатать
Просмотров: 81
Авторы музыки: Stuart Adamson
Авторы текста: Richard Jobson
Out Of Town
Skids
The Skids - Out Of Town

Only worked out the intro.....any help with the chords appreciated...


e----------------------------------------------
B-----5---5----7----7-----8--------------------
G-------5--------7------------------------------
D----------------------------5hold--------------
A-----------------------------------------------
E-----------------------------------------------

e-----------------------------------------------
B-----------------------------------------------
G--7--5--4------------7--5--4-------------------
D-----------5----7-------------5----------------
A-----------------------------------------------
E-----------------------------------------------

All repeated x2

Then into Verse.....

G     C/ G          /   repeated loads


Any help on chords behind the intro please, and also the rest of the song......

Добавлено: 19.12.2015
Другие материалы по этой песне:
  • Аккорды и текст

Страница создана 19.12.2015
http://primanota.ru/skids/out-of-town-chords.htm
Привет, Гость.
Предлагаем пройти революционный курс по гитаре.
Подарок от PrimaNota.Ru, забирай!