PrimaNota.ru - самый крупный в мире бесплатный архив песенных текстов, аккордов, табулатур и нот


Skid Row - Into Another - текст песни, таба, видео

Регистрация Запомнить меня
Войти через:  Facebook Google Twitter Vk Yandex Mail.ru

Skid Row - Into Another - текст песни, таба, видео

Печатать
Просмотров: 241
Авторы: Rachel Bolan, Dave “The Snake” Sabo

RODA TABS
---------
*********************************
THIS TAB: SKID ROW - INTO ANOTHER
*********************************
by: Roda (elroda@datafull.com)
Intro:=

E------------------------------------------------------------------------=
B-3------3----3-------3----3-----3---3------3----3-------3----3----------=
G-0h2----0----0h2-----0----0h2---0---0h2----0----0h2-----0----0h2p0---0--=
D-------------------------------------------------------------------2----=
A-1----1----1------1-----1-----1---1-----1-----1------1-----1------------=
E------------------------------------------------------------------------=

singing lines/parte de =
canto:=

*pay attention, here I put the bass and the guitar together! (WOW), it's =
a little difficult
 to play, but with practice and effort you can fire your bassist and =
your other guitar!!jejeje!.
presta atencion, aca esta el bajo y la guitarra a la vez!(FUAAAA), es un =
poco dificil de tocar,
pero con practica y esfuerzo podes despedir a tu bajista y =
guitarrista!jajajaja!

E-------------------------------
B------3-----3---------3-----3--
G----2-----2-----0---0-----0----    repeat / repite
D--0----------------------------
A------------------1-----3------
E--------1-----3----------------
chorus/estribillo:=

*2 guitars arr. for 1 ///   2 guitarras arregladas para 1
                       pm||
E-----------------------------------
B-----------------------------------
G--7-7-7--5--7-----0h2p0------------
D--7-7-7--5--7--5-----------------3-   repeat / repite
A--5-5-5--3--5--5---------3-5-3-5-1-
E---------------3---------1-3-1-3---
solo 2nd part-2ND GUITAR/solo 2da parte-2da =
guitarra=

*here it's the same that before, just that instead of pass to D(re) =
stays in C(do)
aca es lo mismo que antes, solo que en vez de pasar a D(re) se queda en =
C(do)
E-----------------------------------
B------3-----3---------3-----3---3--
G----2-----2-----0---0-----0---0----
D--0--------------------------------
A------------------1-----3----------
E--------1-----3--------------------

any comments email me to/ algun comentario mandame un email a:
                                                 RODA TABS =
elroda@datafull.com
     
Добавлено: 08.11.2013
Другие материалы по этой песне:

Страница создана 14.03.2012
http://primanota.ru/skid-row/into-another-chords.htm
Привет, Гость.
Предлагаем пройти революционный курс по гитаре.
Подарок от PrimaNota.Ru, забирай!