PrimaNota.ru - самый крупный в мире бесплатный архив песенных текстов, аккордов, табулатур и нот


Skid Row - Breakin Down - текст песни, таба, видео

Регистрация Запомнить меня
Войти через:  Facebook Google Twitter Vk Yandex Mail.ru

Skid Row - Breakin Down - текст песни, таба, видео

Печатать
Просмотров: 452
Авторы: Dave “The Snake” Sabo

Skid Row - Breakin' Down

Solo:
   F                C          G           Am
e|-------------------------------------------------------|
B|----------5-\1-----------------------------------------|
G|------5/7--------------5/7-7----4-h5-2-4----4-h5-/7-\4-|
D|----5----------------5---------------------------------|
A|-3----------------3------------------------------------|
E|-------------------------------------------------------|
   F              C            G               G
e|------------------------------------------------------------|
B|----------5-\1---------5-\1----------------------------3-/5-|
G|------5/7----------5/7----------2-4-h5-2-h4-----2-4-h5------|
D|----5-------------------------------------------------------|
A|-3----------------------------------------------------------|
E|------------------------------------------------------------|

Coisinho da intro e versos:
   C                     C
e|--------------------------------------------|
B|--------------------------------------------|
G|-0--0-0-0--0-2-2--0----0--0-0-0--0-2-2--0---|
D|-2------------------2--2------------------2-|
A|-3---------------------3--------------------|
E|--------------------------------------------|
   Am                    Am
e|--------------------------------------------|
B|--------------------------------------------|
G|-0--0-0-0--0-2-2--0----0--0-0-0--0-2-2--0---|
D|-2------------------2--2------------------2-|
A|-0---------------------0--------------------|
E|--------------------------------------------|

Intro: C C Am Am (2x)

Verso 1:
C                       C
  What was it you once said
                        Am
  That there would be things in life
      Am
That couldn't be

Verso 2:
C
  Not for a second did I
C
  Believe you
Am
  Not for a minute did I
Am
  Believe that

Pré-refrão 1:
G              F
  Within your need you lie alone
G              F
  This empty space you call
      F
Your home

Refrão 1:
Am   -F        C  -G
  If you just let me in
Am  -F        C
  I wouldn't let
-G         Am-F
You break down
C-G    -Am     -F   C-G
  I'm breakin' down

Intrumental: C C Am Am (1x)

Verso 3:
C                        C
  As if you thought the rain
             Am
Could wash away the day
     Am
And could heal you

Verso 4:
C
  Not for a second did I
C
  Believe it
Am
  Not for a minute did I
Am
  Believe that

Pré refrão 2:
G              F
  Within your need you lie alone
G              F
  This empty space you call
      F   F
Your home

Refrão 2:
Am   -F        C  -G
  If you just let me in
Am  -F        C
  I wouldn't let
-G         Am-F
You break down
C       -G    -Am     -F   C-G
  'Cause I'm breakin' down

Am   -F        C  -G
  If you just let me in
Am  -F        C
  I wouldn't let
-G         Am-F
You break down
C       -G    -Am     -F
  'Cause I'm breakin' down

Ponte:
C-G        Am  -F
  I'm breakin' down
C-G           Am-F    C-G
  I'm breakin'  down!

Solo: F C G Am F C G G

Instrumental: C C Am Am (1x)

Verso 5:
C                       C
  What was it you once said
                      Am
That there would be things in life
    Am
That  couldn't be

Verso 6:
C
  Not for a second did I
C
  Believe you
Am
  Not for a minute did I
Am
  Believe that

Refrão 3:
Am   -F        C  -G
  If you just let me in
Am  -F        C
  I wouldn't let
-G         Am-F
You break down
C       -G    -Am     -F    C-G
  'Cause I'm breakin' down,  yeah

Am   -F        C  -G
  If you just let me in
Am  -F        C  -G
  I wouldn't let

Am-F             C
   I'm breakin' down
 -G        Am  -F
  I'm breakin' down
C-G        Am  -F   C-G
  I'm breakin' down

(Am-F C-G)

_____________________________
Transcrito por Rafael Librenz
librenz@gmail.com
Local: Ijuí, RS, Brasil.
Data: Fevereiro/2003
Добавлено: 24.05.2012
Другие материалы по этой песне:

Страница создана 16.04.2012
http://primanota.ru/skid-row/breakin-down-chords.htm
Привет, Гость.
Предлагаем пройти революционный курс по гитаре.
Подарок от PrimaNota.Ru, забирай!